Chordie logo

Love Her      Seether



Band:Seether
Song:Love Her

All the other tabs on the net were right in some spots, but wrong in others,
so i put everything together.
Tuning: drop D (DADGBE)

Intro:
e|---5-----8------3-----------|
B|---5-----8------3-------6p5-|
G|---7-----10-----5-----------|
D|---7-----10-----5-----7-----|
A|-5---0-8----003---3-5-------|
D|----------------------------|

e|---5-----8------3-------6p5-|
B|---5-----8------3-----------|
G|---7-----10-----5-----7-----|
D|---7-----10-----5-----------|
A|-5---0-8----003---3-5-------|
D|----------------------------|

Verse: repeat
Listen for rhythm.

Chorus
e|--------------------------------------|
B|--------------------------------------|
G|-------------7^-------------4h5p4p0---| 2x
D|-5--3--5--8-----5--3--8--5------------|
A|-5--3--5--8-----5--3--8--5------------|
D|-5--3--5--8-----5--3--8--5------------|


Solo:
e|-------8------------5--------8---8---8--------|
B|-5/6-8---8\\-5h6p5-3----5/6-8---8---8---8-10^--|2x
G|----------------------------------------------|
D|----------------------------------------------|
A|----------------------------------------------|
D|----------------------------------------------|



Important: The song above is NOT stored on the Chordie server. The original song is hosted at www.xguitar.com. Chordie works as a search engine and provides on-the-fly formatting. Chordie does not index songs against artists/composers will. To remove this song please click here.

This song is displayed as text-only. Transposing and tuning is only available for chordpro-songs.

Rating click stars to rate

Layout
Accuracy

SHARE PAGE  

You need to log in to post comments