Chordie logo


Slow Dance    Senses Fail



Slowdance

DROPPED D TUNING - Strings are (D A D G B E)


Guitar 1
0:00
E|----0----------0----------------|
B|----0----------0----------------| X2
G|----5----------0----------------|
D|----5----------2----------------|
A|----3----------2----------------|
D|----X----------2----------------|
Let these Chords ring out

0:12   Verse 1
E|--------------------------------------------------|
B|--------------------------------------------------| X4
G|--5-5-5-5-5-5-5-5---------------------------------|
D|--5-5-5-5-5-5-5-5------2-2-2-2-2-2-2-2------------|
A|--3-3-3-3-3-3-3-3------2-2-2-2-2-2-2-2------------|
D|-----------------------2-2-2-2-2-2-2-2------------|

P.M     Pattern not shown

0:35    Chorus
E|---------------------------------------------------------------------|
B|---------------------------------------------------------------------| X2
G|---------------------------------------------------5-5-5-5-5-5-5-5---|
D|-5-5-5-5-5-5-5-5--2-2-2-2-2-2-2-2-2-2-2-2-2-2-2-2--5-5-5-5-5-5-5-5---|
A|-5-5-5-5-5-5-5-5--2-2-2-2-2-2-2-2-2-2-2-2-2-2-2-2--3-3-3-3-3-3-3-3---|
D|-5-5-5-5-5-5-5-5--2-2-2-2-2-2-2-2-2-2-2-2-2-2-2-2--------------------|


1:00 Verse 2
E|--------------------------------------------------|
B|--------------------------------------------------| X2
G|--5-5-5-5-5-5-5-5---------------------------------|
D|--5-5-5-5-5-5-5-5------2-2-2-2-2-2-2-2------------|
A|--3-3-3-3-3-3-3-3------2-2-2-2-2-2-2-2------------|
D|-----------------------2-2-2-2-2-2-2-2------------|
P.M    Pattern Not Shown

1:12
E|-------------------------|-------------------------------------------------|
B|-------------------------|-------------------------------------------------|
G|--5-5-5------------------|--5-5-5------------------------------------------|
D|--5-5-5-------2-2-2------|--5-5-5--------2---2-2-2-2-2-2-2---2----2----2---|
A|--3-3-3-------2-2-2------|--3-3-3--------2---2-2-2-2-2-2-2---2----2----2---|
D|--------------2-2-2------|---------------2---2-2-2-2-2-2-2---2----2----2---|
                                                          .......
1:23    Chorus
E|---------------------------------------------------------------------|
B|---------------------------------------------------------------------| X2
G|---------------------------------------------------5-5-5-5-5-5-5-5---|
D|-5-5-5-5-5-5-5-5--2-2-2-2-2-2-2-2-2-2-2-2-2-2-2-2--5-5-5-5-5-5-5-5---|
A|-5-5-5-5-5-5-5-5--2-2-2-2-2-2-2-2-2-2-2-2-2-2-2-2--3-3-3-3-3-3-3-3---|
D|-5-5-5-5-5-5-5-5--2-2-2-2-2-2-2-2-2-2-2-2-2-2-2-2--------------------|

1:47    Bridge
E|--------------------------------------------------------------------|
B|--------------------------------------------------------------------| X2
G|--------------------------------------------------------------------|
D|--2-2-2-2-2-2-2-2-2-2-2-2-2-2-2--5-5-5-5-5-5-5-5-5-5-5-5-5-5-5-5----|
A|--2-2-2-2-2-2-2-2-2-2-2-2-2-2-2--5-5-5-5-5-5-5-5-5-5-5-5-5-5-5-5----|
D|--2-2-2-2-2-2-2-2-2-2-2-2-2-2-2--5-5-5-5-5-5-5-5-5-5-5-5-5-5-5-5----|

1:58
E|---------------------------------------------------------------------------------|
B|---------------------------------------------------------------------------------| X2
G|---------------------------------------------------------------------------------|
D|--2-2-2--2-2-2----2-2-2--2-2-2----2-2-2--2-2-2----2-2-2--2-2-2--5-5-5--5-5-5-----|
A|--2-2-2--2-2-2----2-2-2--2-2-2----2-2-2--2-2-2----2-2-2--2-2-2--5-5-5--5-5-5-----|
D|--2-2-2--2-2-2----2-2-2--2-2-2----2-2-2--2-2-2----2-2-2--2-2-2--5-5-5--5-5-5-----|

2:14
Chorus
E|---------------------------------------------------------------------|
B|---------------------------------------------------------------------| X4
G|---------------------------------------------------5-5-5-5-5-5-5-5---|
D|-5-5-5-5-5-5-5-5--2-2-2-2-2-2-2-2-2-2-2-2-2-2-2-2--5-5-5-5-5-5-5-5---|
A|-5-5-5-5-5-5-5-5--2-2-2-2-2-2-2-2-2-2-2-2-2-2-2-2--3-3-3-3-3-3-3-3---|
D|-5-5-5-5-5-5-5-5--2-2-2-2-2-2-2-2-2-2-2-2-2-2-2-2--------------------|


3:02
E|--------------------------------------|
B|--------------------------------------|
G|--------------------------------------|
D|--2-2-2-----2----2-2-2-2--2-----------|
A|--2-2-2-----2----2-2-2-2--2-----------|
D|--2-2-2-----2----2-2-2-2--2-----------|


Guitar 2

0:12   Verse 1

Start the 2nd time
E|-----------------------------------------------------------------------------------|
B|-----------------------------------------------------------------------------------| X3
G|--12-12-12-12----12-12-12----12-12-12-11-11-11-11-4-4-4-4-----4-4-4----4-4-4-4-4-4-|
D|--x--x--x--x-----x--x--x-----x--x--x--x--x--x--x--x-x-x-x-----x-x-x----x-x-x-x-x-x-|
A|--10-10-10-10----10=10-10----10-10-10=9--9--9--9--2-2-2-2-----2-2-2----2-2-2-2-2-2-|
D|-----------------------------------------------------------------------------------|
P.M

0:35   Chorus
E|-----------------------------------------------|
B|-----------------------------------------------| X8
G|--12----14----16-------------------------------|
D|--x-----x-----x--------------------------------|
A|--10----12----14-------------------------------|
D|-----------------------------------------------|

1:00  Verse 2

Start 2nd time
E|-----------------------------------------------------------------------------------|
B|-----------------------------------------------------------------------------------| X3
G|--12-12-12-12----12-12-12----12-12-12-11-11-11-11-4-4-4-4-----4-4-4----4-4-4-4-4-4-|
D|--x--x--x--x-----x--x--x-----x--x--x--x--x--x--x--x-x-x-x-----x-x-x----x-x-x-x-x-x-|
A|--10-10-10-10----10=10-10----10-10-10=9--9--9--9--2-2-2-2-----2-2-2----2-2-2-2-2-2-|
D|-----------------------------------------------------------------------------------|
P.M

1:12                          this is the last time
E|----------------------|   ---------------------------------|
B|----------------------|X2 ---------------------------------|
G|--12-12-12------4-4-4-|   --4----4-4-4-4-4-4--4----4----4--|
D|--x--x---x------x-x-x-|   --x----x-x-x-x-x-x--x----x----x--|
A|--10-10-10------2-2-2-|   --2----2-2-2-2-2-2--2----2----2--|
D|----------------------|   ---------------------------------|


0:35   Chorus
E|-----------------------------------------------|
B|-----------------------------------------------| X8
G|--12----14----16-------------------------------|
D|--x-----x-----x--------------------------------|
A|--10----12----14-------------------------------|
D|-----------------------------------------------|

1:47    Bridge
E|--------------------------------------------------------------------|
B|--------------------------------------------------------------------| X2
G|--------------------------------------------------------------------|
D|--2-2-2-2-2-2-2-2-2-2-2-2-2-2-2--5-5-5-5-5-5-5-5-5-5-5-5-5-5-5-5----|
A|--2-2-2-2-2-2-2-2-2-2-2-2-2-2-2--5-5-5-5-5-5-5-5-5-5-5-5-5-5-5-5----|
D|--2-2-2-2-2-2-2-2-2-2-2-2-2-2-2--5-5-5-5-5-5-5-5-5-5-5-5-5-5-5-5----|

1:58
E|--------------------------------------------------------------------|
B|--------------------------------------------------------------------| X2
G|--------------------------------------------------------------------|
D|--2-2-2-2-2-2-2-2-2-2-2-2-2-2-2--5-5-5-5-5-5-5-5-5-5-5-5-5-5-5-5----|
A|--2-2-2-2-2-2-2-2-2-2-2-2-2-2-2--5-5-5-5-5-5-5-5-5-5-5-5-5-5-5-5----|
D|--2-2-2-2-2-2-2-2-2-2-2-2-2-2-2--5-5-5-5-5-5-5-5-5-5-5-5-5-5-5-5----|

2:14       Chorus Lead 1
E|-----------------------------------------|
B|-----------------------------------------| X16
G|--12----14----16-------------------------|
D|--x1----x-----x--------------------------|
A|--10----12----14-------------------------|
D|-----------------------------------------|

2:38       Chorus Lead 2
E|--------------------------------------------------------------------------------------|
B|--------------------------------------------------------------------------------------|
G|--------------------------------------------------------------------------------------|
D|--12--11---9---7---11--12--14--12-----14---12---15-----14----12----17---15---14----12-|
A|--x----x---x---x---x---x---x---x------x----x----x------x-----x-----x----x----x-----x--|
D|--10---9---7---5---9---10--12--10-----12---10---13-----12----10----15---13---12----10-|


3:02 The End
E|--------------------------------------|
B|--------------------------------------|
G|--------------------------------------|
D|--2-2-2-----2----2-2-2-2--2-----------|
A|--2-2-2-----2----2-2-2-2--2-----------|
D|--2-2-2-----2----2-2-2-2--2-----------|

.  = palm mute
* = accented


Important: The song above is NOT stored on the Chordie server. The original song is hosted at www.xguitar.com. Chordie works as a search engine and provides on-the-fly formatting. Chordie does not index songs against artists/composers will. To remove this song please click here.

This song is displayed as text-only. Transposing and tuning is only available for chordpro-songs.

Login - add to songbook

Rating click stars to rate

Layout
Accuracy

SHARE PAGE  




You need to log in to post comments