Guitar Tabs, Chords and Lyrics


The River    Sentenced



Sentenced - The River
Submitted By: stratovarius5000
EMail: stratovarius5000@yahoo.com


INTRO (GTR 2 w/tremolo effect, or it's just GTR 1 which is doubled)
|-----------------------------------------|-----------------------------------|
|--------3-----3--------2-0---0-----------|-----3-----2-----2-----2---2h3-----|
|----------4-----4-----0----------1/2---0-|-------4-----4-----4-------------4-|GTRS 1&2
|------4-----4--------2-------------------|---4-----4-----4-----4---4-----4---|
|----2---------------2--------------------|-2---------------------------------|
|-2-----------------0-------0---0-----0---|-----------------------------------|

|--------------------------------------|-----------------------2-----------|
|-----3-----3--------2-0---0-----------|-----3-----2-----2---------2---2h3-|
|-------4-----4-----0----------1/2---0-|-------4-----4-----4---------------|GTRS 1&2
|---4-----4--------2-------------------|---4-----4-----4-----4---4---4-----|
|-2---------------2--------------------|-2---------------------------------|
|----------------0-------0---0-----0---|-----------------------------------|

|-------------------------------------|-----------0-----------------------|
|-----2-----2h3-----3h5-----3---2---3-|-------3-----3----------3---0------|
|-------2-------2-------2-------------|---------------0--------------0----|GTRS 1&2
|---2-----2-------2-------2---2---2---|-----0---0------------0---0-----0--|
|-0-----------------------------------|---2----------------2--------------|
|-------------------------------------|-3----------------3----------------|

|-----------------------------------|---------------------------------|
|-----2-----3-----3h5-----3---2---0-|-----0-----2-----3-----2---0-----|
|-------2-----2---------------------|-------0-----0-----0---------2---|GTR 1&2
|---2-----2-----2-------2-----------|---------2-----2-----0---0-----2-|
|-0-------------------0-----0---0---|---2-----------------------------|
|-----------------------------------|-0---------------3---------------|


|----------0------------------|---------------------------|
|-------3----3-------3--0-----|-2-----2h3-----2h3p2-------|
|--------------0----------0---|-----2-------2-------2-----|GTR 1
|-----0-----------0---------0-|---2-------2------------2--|
|---2-------------------------|-0-------------------------|
|-3---------------------------|---------------------------|
|			      |				  |
|----------0------------------|---------------------------|
|-------3----3-------3--0-----|---------------------------|
|--------------0----------0---|---------------------------|GTR 2
|-----0-----------0---------0-|-2---------------------(2)-|
|---2-------------------------|-0---------------------(0)-|
|-3---------------------------|---------------------------|


1. VERSE
|------------------------------------|----------------------------------|
|----3-----3--------2-0---0----------|----3-----2-----2-----2---2h3-----|
|------4-----4-----0----------1/2--0-|------4-----4-----4-------------4-|GTR 1&2
|--------4--------2------------------|--------4-----4-----4---4-----4---|
|-2--------------2-------------------|-2--------------------------------|
|---------------0-------0---0----0---|----------------------------------|

|------------------------------------|----------------------2-----------|
|----3-----3--------2-0---0----------|----3-----2-----2---------2---2h3-|
|------4-----4-----0----------1/2--0-|------4-----4-----4---------------|GTR 1&2
|--------4--------2------------------|--------4-----4-----4---4---4-----|
|-2--------------2-------------------|-2--------------------------------|
|---------------0-------0---0----0---|----------------------------------|

|-------------------------------------|-----------0----------------------|
|-----2-----3-----3h5-----3---2---2h3-|-------3-----3---------3---0------|
|-------2-----2-------2---------------|---------------0-------------0----|GTR 1
|---2-----2-----2-------2---2---2-----|-----0---0-----------0---------0--|(clean)
|-0-----------------------------------|---2---------------2--------------|
|-------------------------------------|-3---------------3-------3--------|
|				      |				         |
|-------------------------------------|----------------------------------|
|-------------------------------------|----------------------------------|
|-2-------------------------------(2)-|----------------------------------|GTR 2
|-2-------------------------------(2)-|-5----------------------------(5)-|(distortion)
|-0-------------------------------(0)-|-5----------------------------(5)-|
|-------------------------------------|-3----------------------------(3)-|

|-----------------------------------|---------------------------------|
|-----2-----3-----3h5-----3---2---0-|-----0-----2-----3-----2---0-----|
|-------2-----2-------2-----------0-|-------0-----0-----0---------2---|GTR 1
|---2-----2-----2-------2---2---2---|---------2-----2-----0---0-----2-|(clean)
|-0---------------------------------|---2-----------------------------|
|-----------------------------------|-0---------------3---------------|
|				    |				      |
|-----------------------------------|---------------------------------|
|-----------------------------------|---------------------------------|
|-2-----------------------------(2)-|-----------------------2---------|GTR 2
|-2-----------------------------(2)-|-2---------------5-----2---------|(distortion)
|-0-----------------------------(0)-|-2---------------5-----0---------|
|-----------------------------------|-0---------------3---------------|


2. VERSE
|--------------------------------------|-----------------------------------|
|-----3-----3--------2-0---0-----------|-----3-----2-----2-----2---2h3-----|
|-------4-----4-----0----------1/2---0-|-------4-----4-----4-------------4-|GTR 1
|---4-----4--------2-------------------|---4-----4-----4-----4---4-----4---|(clean)
|-2---------------2--------------------|-2---------------------------------|
|----------------0-------0---0-----0---|-----------------------------------|
|				       |				   |
|--------------------------------------|-----------------------------------|
|--------------------------------------|-----------------------------------|
|--------------------------------------|-----------------------------------|GTR 2
|-4--------------------------------(4)-|-----------------------------------|(distortion)
|-2--------------------------------(2)-|-----------------------------------|
|--------------------------------------|-----------------------------------|


|--------------------------------------|-2--2-3--2--------------------|
|-----3-----3--------2-0---0-----------|-3--3-3--3----2--2-3--2--2h3--|
|-------4-----4-----0----------1/2---0-|-2--2-2--2----2--2-2--2--2----|GTR 1
|---4-----4--------2-------------------|-0--0-0--0----2--2-2--2--2----|
|-2---------------2--------------------|--------------0--0-0--0--0----|
|----------------0-------0---0-----0---|------------------------------|
|				       |			      |
|--------------------------------------|------------------------------|
|--------------------------------------|------------------------------|
|--------------------------------------|-7----------------------------|GTR 2
|--------------------------------------|-7------------7---------------|(distortion)
|--------------------------------------|-5------------7---------------|
|--------------------------------------|--------------5---------------|


|----------0--------------------|----------------------|
|-------3----3---------3--0-----|-2-----2h3-----3h5----|
|--------------0------------0---|---2-------2---2------|GTR 1
|-----0--------------0--------0-|-----2-------2--------|
|---2--------------2------------|----------------------|
|-3--------------3--------------|----------------------|
|			        |		       |
|-------------------------------|----------------------|
|-------------------------------|----------------------|
|-------------------------------|----------------------|GTR 2
|-5-------------------------(5)-|-7----------------(7)-|
|-5-------------------------(5)-|-7----------------(7)-|
|-3-------------------------(3)-|-5----------------(5)-|


CHORUS 1
|-2-2-2-222222-2---|------------------|-3-3-3-333333-3---|
|-3-3-3-333333-3---|------------------|-3-3-3-333333-3---|
|-4-4-4-444444-4---|-2-2-2-222222-2---|-0-0-0-000000-0---|GTR 1
|-4-4-4-444444-4---|-2-2-2-222222-2---|-0-0-0-000000-0---|
|-2-2-2-222222-2---|-0-0-0-000000-0---|-2-2-2-222222-2---|
|------------------|------------------|-3-3-3-333333-3---|
|		   |		      |			 |
|------------------|------------------|------------------|
|------------------|------------------|------------------|
|-4-4-4-444444-4---|-2-2-2-222222-2---|------------------|GTR 2
|-4-4-4-444444-4---|-2-2-2-222222-2---|-5-5-5-555555-5---|(distortion)
|-2-2-2-222222-2---|-0-0-0-000000-0---|-5-5-5-555555-5---|
|------------------|------------------|-3-3-3-333333-3---|

|-0-0-0-000000-0---|-2-2-2-222222-2---|------------------|
|-0-0-0-000000-0---|-3-3-3-333333-3---|------------------|
|-0-0-0-000000-0---|-2-2-2-222222-2---|-2-2-2-222222-2---|GTR 1
|-2-2-2-222222-2---|-0-0-0-000000-0---|-2-2-2-222222-2---|
|-2-2-2-222222-2---|------------------|-0-0-0-000000-0---|
|-0-0-0-000000-0---|------------------|------------------|
|		   |		      |			 |
|------------------|------------------|------------------|
|------------------|------------------|------------------|
|------------------|-7-7-7-777777-7---|-2-2-2-222222-2---|GTR 2
|-2-2-2-222222-2---|-7-7-7-777777-7---|-2-2-2-222222-2---|(distortion)
|-2-2-2-222222-2---|-5-5-5-555555-5---|-0-0-0-000000-0---|
|-0-0-0-000000-0---|------------------|------------------|

|-3-3-3-333333-33-3-3-3-333333-33-|
|-3-3-3-333333-33-3-3-3-333333-33-|
|-0-0-0-000000-00-0-0-0-000000-00-|GTR 1
|-0-0-0-000000-00-0-0-0-000000-00-|
|-2-2-2-222222-22-2-2-2-222222-22-|
|-3-3-3-333333-33-3-3-3-333333-33-|
|				  |
|---------------------------------|
|---------------------------------|
|---------------------------------|GTR 2
|-5-5-5-555555-55-5-5-5-555555-55-|(distortion)
|-5-5-5-555555-55-5-5-5-555555-55-|
|-3-3-3-333333-33-3-3-3-333333-33-|


|-2-2-2-222222-2---|------------------|-3-3-3-333333-3---|
|-3-3-3-333333-3---|------------------|-3-3-3-333333-3---|
|-4-4-4-444444-4---|-2-2-2-222222-2---|-0-0-0-000000-0---|GTR 1
|-4-4-4-444444-4---|-2-2-2-222222-2---|-0-0-0-000000-0---|
|-2-2-2-222222-2---|-0-0-0-000000-0---|-2-2-2-222222-2---|
|------------------|------------------|-3-3-3-333333-3---|
|		   |		      |			 |
|------------------|------------------|------------------|
|------------------|------------------|------------------|
|-4-4-4-444444-4---|-2-2-2-222222-2---|------------------|GTR 2
|-4-4-4-444444-4---|-2-2-2-222222-2---|-5-5-5-555555-5---|(distortion)
|-2-2-2-222222-2---|-0-0-0-000000-0---|-5-5-5-555555-5---|
|------------------|------------------|-3-3-3-333333-3---|

|-0-0-0-000000-0---|-2-2-2-222222-2---|------------------|
|-0-0-0-000000-0---|-3-3-3-333333-3---|------------------|
|-0-0-0-000000-0---|-2-2-2-222222-2---|-2-2-2-222222-2---|GTR 1
|-2-2-2-222222-2---|-0-0-0-000000-0---|-2-2-2-222222-2---|
|-2-2-2-222222-2---|------------------|-0-0-0-000000-0---|
|-0-0-0-000000-0---|------------------|------------------|
|		   |		      |			 |
|------------------|------------------|------------------|
|------------------|------------------|------------------|
|------------------|-7-7-7-777777-7---|-2-2-2-222222-2---|GTR 2
|-2-2-2-222222-2---|-7-7-7-777777-7---|-2-2-2-222222-2---|(distortion)
|-2-2-2-222222-2---|-5-5-5-555555-5---|-0-0-0-000000-0---|
|-0-0-0-000000-0---|------------------|------------------|

|-3-3-3-333333-33-3-3-3-333333-33-|-0-0-0-000000-000-----|
|-3-3-3-333333-33-3-3-3-333333-33-|-0-0-0-000000-000-----|
|-0-0-0-000000-00-0-0-0-000000-00-|-0-0-0-000000-000-----|GTR 1
|-0-0-0-000000-00-0-0-0-000000-00-|-2-2-2-222222-222-----|
|-2-2-2-222222-22-2-2-2-222222-22-|-2-2-2-222222-222-----|
|-3-3-3-333333-33-3-3-3-333333-33-|-0-0-0-000000-000-----|
|				  |			 |
|---------------------------------|----------------------|
|---------------------------------|----------------------|
|---------------------------------|----------------------|GTR 2
|-5-5-5-555555-55-5-5-5-555555-55-|-2-2-2-222222-222-----|(distortion)
|-5-5-5-555555-55-5-5-5-555555-55-|-2-2-2-222222-222-----|
|-3-3-3-333333-33-3-3-3-333333-33-|-0-0-0-000000-000-----|

|-----------|
|-----------|
|-----------|GTR 1
|-----------|
|-0-2/4\2-0-|
|-----------|


3. VERSE
|--------------------------------------|-----------------------------------|
|-----3-----3--------2-0---0-----------|-----3-----2-----2-----2---2h3-----|
|-------4-----4-----0----------1/2---0-|-------4-----4-----4-------------4-|GTR 1 & 2
|---4-----4--------2-------------------|---4-----4-----4-----4---4-----4---|
|-2---------------2--------------------|-2---------------------------------|
|----------------0-------0---0-----0---|-----------------------------------|

|--------------------------------------|-2-2-2-3--2-2-2----------------|
|-----3-----3--------2-0---0-----------|-3-3-3-3--3-3-3-2-2-2-3--2-2-2-|
|-------4-----4-----0----------1/2---0-|-2-2-2-2--2-2-2-2-2-2-2--2-2-2-|GTR 1
|---4-----4--------2-------------------|-0-0-0-0--0-0-0-2-2-2-2--2-2-2-|
|-2---------------2--------------------|----------------0-0-0-0--0-0-0-|
|----------------0-------0---0-----0---|-------------------------------|
|				       |		 	       |
|--------------------------------------|-------------------------------|
|--------------------------------------|-------------------------------|
|--------------------------------------|-7-----------------------------|GTR 2
|--------------------------------------|-7--------------7--------------|(distortion)
|--------------------------------------|-5--------------7--------------|
|--------------------------------------|----------------5--------------|


|---------------------------------|-----------------------------------------|
|---------------------------------|-----------------------------------------|
|---------------------------------|-----------------------------------------|GTR 1
|-5-5-5-5-5-5-5-5-5-5-5-5-5-5-5-5-|-----------------------------------------|(clean)
|-3-3-3-3-3-3-3-3-3-3-3-3-3-3-3-3-|-5-5-5-5-5-5-5-5-5-5-5-7-7-5-5-7-7-5-5-3-|
|---------------------------------|-3-3-3-3-3-3-3-3-3-3-3-3-3-3-3-3-3-3-3-3-|
|				  |					    |
|---------------------------------|-----------------------------------------|
|---------------------------------|-----------------------------------------|
|---------------------------------|-----------------------------------------|GTR 2
|-5-5-5-5-5-5-5-5-5-5-5-5-5-5-5-5-|-----------------------------------------|(distortion)
|-3-3-3-3-3-3-3-3-3-3-3-3-3-3-3-3-|-5-5-5-5-5-5-5-5-5-5-5-7-7-5-5-7-7-5-5-3-|
|---------------------------------|-3-3-3-3-3-3-3-3-3-3-3-3-3-3-3-3-3-3-3-3-|

|---------------------------------|------0--0-0-0-2-2-2-3--2-2-2-|
|---------------------------------|------0--0-0-0-3-3-3-3--3-3-3-|
|---------------------------------|------0--0-0-0-2-2-2-2--2-2-2-|GTR 1
|-5-5-5-5-5-5-5-5-5-5-5-5-5-5-5-5-|-2--2-2--2-2-2-0-0-0-0--0-0-0-|(clean)
|-3-3-3-3-3-3-3-3-3-3-3-3-3-3-3-3-|-2--2-------------------------|
|---------------------------------|-0--0-------------------------|
|				  |				 |
|---------------------------------|------------------------------|
|---------------------------------|------------------------------|
|---------------------------------|------------------------------|GTR 2
|-5-5-5-5-5-5-5-5-5-5-5-5-5-5-5-5-|-2--2-2--2--2-2-7--7-7--7--7-7|(distortion)
|-3-3-3-3-3-3-3-3-3-3-3-3-3-3-3-3-|-2--2-2--2--2-2-5--5-5--5--5-5|
|---------------------------------|-0--0-0--0--0-0---------------|

|------------------------|
|-3-3-3-3--3-3--5--------|
|-0-0-0-0--0-0--0--------|GTR 1
|-2-2-2-2--2-2--2--------|(clean)
|-3-3-3-3--3-3--3--------|
|------------------------|
|			 |
|------------------------|
|------------------------|
|------------------------|GTR 2 (not sure about this)
|-5--5-5--5-5-5----------|(distortion)
|-3--3-3--3-3-3----------|
|------------------------|


SOLO  w/1. VERSE
|------------------------------------------|
|-----3------------------------------------|
|-2/4---4--4-------------------------------|
|------------2/4\2---0-2/4-2p0-------------|
|------------------------------2---2/5\2---|
|------------------------------------------|
		     .

|-----------------------------------------------------------------|
|----------14h15p14-----14h15p14-------------------15-------------|
|-16-14-16----------16-----------16----------14-14----16-14-14-16-|
|-16-14-16--------------------------12-14/16----------------------|
|-----------------------------------------------------------------|
|-----------------------------------------------------------------|

|-------------------------------------------------|
|-------14-15fbr-14-------------------------------|
|-14-16-------------16-14-------------------------|
|-------------------------16-15-14\12-14-12-11----|
|----------------------------------------------12-|
|-------------------------------------------------|

After solo the 1. verse continues till its end.

PRE CHORUS
|-----------0------------------|-----------------------------|
|-------3-----3-------3--0-----|-2-----2h3-----2h3p2---------|
|---------------0----------0---|---2-------2---------2-------|GTR 1
|-----0---0--------0---------0-|-----2-------2----------2----|(clean)
|---2--------------------------|-0---------------------------|
|-3----------------------------|-----------------------------|
|			       |			     |
|------------------------------|-----------------------------|
|------------------------------|-----------------------------|
|------------------------------|-----2-----------------------|GTR 2
|-----0------------------------|---2-------------------------|(distortion)
|---2--------------------------|-0---------------------------|
|-3----------------------------|-----------------------------|

|-----------0------------------|-------------------5----|
|-------3-----3-------3--0-----|-2-----2h3-----3h5-5----|
|---------------0----------0---|---2-------2------------|GTR 1
|-----0---0--------0---------0-|-----2-------2----------|(clean)
|---2--------------------------|-0----------------------|
|-3----------------------------|------------------------|
|			       |			|
|------------------------------|------------------------|
|------------------------------|------------------------|
|------------------------------|-----2------------------|GTR 2
|-----0------------------------|---2--------------------|(distortion)
|---2--------------------------|-0----------------------|
|-3----------------------------|------------------------|


CHORUS 2 (GTR 1 is pretty quiet here)
|-2-2-2-222222-2---|------------------|-3-3-3-333333-3---|
|-3-3-3-333333-3---|------------------|-3-3-3-333333-3---|
|-4-4-4-444444-4---|-2-2-2-222222-2---|-0-0-0-000000-0---|GTR 1
|-4-4-4-444444-4---|-2-2-2-222222-2---|-0-0-0-000000-0---|(clean)
|-2-2-2-222222-2---|-0-0-0-000000-0---|-2-2-2-222222-2---|
|------------------|------------------|-3-3-3-333333-3---|
|		   |		      |		         |
|------------------|------------------|------------------|
|------------------|------------------|------------------|
|------------------|------------------|------------------|GTR 2
|------------------|------------------|------------------|(distortion)
|-2----------------|-0----------------|------------------|
|------------------|------------------|-3----------------|


|-0-0-0-000000-0---|-2-2-2-222222-2---|------------------|
|-0-0-0-000000-0---|-3-3-3-333333-3---|------------------|
|-0-0-0-000000-0---|-2-2-2-222222-2---|-2-2-2-222222-2---|GTR 1
|-2-2-2-222222-2---|-0-0-0-000000-0---|-2-2-2-222222-2---|(clean)
|-2-2-2-222222-2---|------------------|-0-0-0-000000-0---|
|-0-0-0-000000-0---|------------------|------------------|
|		   |		      |			 |
|------------------|------------------|------------------|
|------------------|------------------|------------------|
|------------------|------------------|------------------|GTR 2
|------------------|------------------|------------------|(distortion)
|-2----------------|-5----------------|------------------|
|-0----------------|------------------|-5----------------|


|-3-3-3-333333-33-3-3-3-333333-33-|
|-3-3-3-333333-33-3-3-3-333333-33-|
|-0-0-0-000000-00-0-0-0-000000-00-|GTR 1
|-0-0-0-000000-00-0-0-0-000000-00-|(clean)
|-2-2-2-222222-22-2-2-2-222222-22-|
|-3-3-3-333333-33-3-3-3-333333-33-|
|				  |
|---------------------------------|
|---------------------------------|
|---------------------------------|GTR 2
|---------------------------------|(distortion)
|---------------------------------|
|-3--------------------------(3)--|

Repeat CHORUS 2


ENDING
|-----------------|-----------------|-----------------|-----------------|-------------|
|-----------------|-----------------|-----------------|-----------------|-------------|
|-0-0-0-000000-0--|-----------------|-0-0-0-000000-0--|-----------------|-------------|GTR 1
|-2-2-2-222222-2--|-5-5-5-555555-5--|-2-2-2-222222-2--|-----------------|-------------|(clean)
|-2-2-2-222222-2--|-5-5-5-555555-5--|-2-2-2-222222-2--|-----------------|-------------|
|-0-0-0-000000-0--|-3-3-3-333333-3--|-0-0-0-000000-0--|-----------------|-------------|
|		  |		    |		      |			|  	      |
|-----------------|-----------------|-----------------|-----------------|-------------|
|-----------------|-----------------|-----------------|-----------------|-------------|
|-----------------|-----------------|-----------------|-----------------|-------------|GTR 2
|-----------------|-----------------|-----------------|-----------------|-0-----------|(dist.)
|-2---------------|-5---------------|-2---------------|-(2)-------------|-2-----------|


Important: The song above is NOT stored on the Chordie server. The original song is hosted at www.xguitar.com. Chordie works as a search engine and provides on-the-fly formatting. Chordie does not index songs against artists'/composers' will. To remove this song please click here.

This song is displayed as text-only. Transposing and tuning is only available for chordpro-songs.

Login - add to songbook

Rating click stars to rate

Layout
Accuracy

SHARE PAGE  




You need to log in to post comments