Guitar Tabs, Chords and Lyrics


Kamaitachi   Sepultura



Artist: Sepultura
Song: Kamatachi
Album: Against

Tuned to ?

e|------------------------------------|
B|------------------------------------|
G|------------------------------------|
D|------------------------------------|
A|--2-2-2-6-5-5-5-2-3-3-3-5-6-6-6-6\--|
E|--0-0-0-4-3-3-3-0-1-1-1-3-4-4-4-4\--|

e|-----------------------------------|
B|-----------------------------------|
G|-----------------------------------|
D|-----------------------------------|
A|-----------------------------------|
E|--0-0-0-4-3-3-3-0-1-1-1-3-4-4-4-4--|

e|--------------|
B|------bend up-|
G|------666666--|
D|------555555--|
A|--2-2---------|


Important: The song above is NOT stored on the Chordie server. The original song is hosted at www.xguitar.com. Chordie works as a search engine and provides on-the-fly formatting. Chordie does not index songs against artists'/composers' will. To remove this song please click here.

This song is displayed as text-only. Transposing and tuning is only available for chordpro-songs.

Login - add to songbook

Rating click stars to rate

Layout
Accuracy

SHARE PAGE  




You need to log in to post comments