Guitar Tabs, Chords and Lyrics


Dead Embryonic Cells   Sepultura



Artist: Sepultura
Song: Dead Emryonic cells
Album: Arise 
 

 P.M.....            P.M.................    P.M..................
|-----------------------------------------------------------------|
|-----------------------------------------------------------------|
|-----------------------------------------------------------------|
|----------3------------------------------3-----------------------|
|----------1-----------------4-----4------1-----------------------|
|-0-0-0-0-------------0-0-0--2--0--2---0------0-0-0-0-0--0-0-0-0-0|
      P.M.................      P.M..........
|-----------------------------------------------------------------|
|-----------------------------------------------------------------|
|-----------------------------------------------------------------|
|-3-------------------------3-----------------3-2-3---------------|
|-1------------4-----4------1-----------------1-0-1---------------|
|-------0-0-0--2--0--2--0----------0-0-0-0-0----------------------|
rhy fig 1
P.M........  P.M...  ......
|-----------------------------------------------------------------|
|-----------------------------------------------------------------|
|-----------------------------------------------------------------|
|---------------------------3-2-3---------------------------------|
|-----------3------2--------1-0-1---------------------------------|
|--0-0-0-0--1--0-0-0--0--0----------------------------------------|
P.M......   ..          .......... ............. .....  ./.
|-----------------------------------------------------------------|
|-----------------------------------------------------------------|
|-----------------------------------------------------------------|
|---------------3--2--3-------------------------------------------|
|---------3-----1--0--1-----------3-------------3-----3------3----|
|-0-0-0-0-1--0------------0-0-0-0-1-0-0-0-0-0-0-1-0-0-1--0---1----|
P.M...   .....   ...
|-----------------------------------------------------------------|
|-----------------------------------------------------------------|
|-----------------------------------------------------------------|
|-----------------------------------------------------------------|
|-------3------3----3---------------------------------------------|
|-0-0-0-1--0-0-1-0--1---------------------------------------------|
   w/bar
|-----------------------------------------------------------------|
|-----------------------------------------------------------------|
|-----------------------------------------------------------------|
|-----------------------------------------------------------------|
|-----------------------------------------------------------------|
|-0---------------------------------------------------------------|
Rhy 2
PM all open notes
|-----------------------------------------------------------------|
|-----------------------------------------------------------------|
|-----------------------------------------------------------------|
|-----------------------------------------------------------------|
|---------3-----2----2------3------2---2-----3-----2-----2----3--3|
|0--0-0-0-1-0-0-0--0-0--0-0-1-0--0-0-0-0-0-0-1-0-0-0-0-0-0-0-01-01|
w/ Rhy 1
|-----------------------------------------------------------------|
|-/8--------------------------------7--(7)------------------------|
|-/9-----------------------9\8--8------(8)------------------------|
|-----------------------------------------------------------------|
|-----------------------------------------------------------------|
|-----------------------------------------------------------------|

|-----------------------------------------------------------------|
|-/8------------------------------7 (7)---------------------------|
|-/9------------------------9\8-----(8)---------------------------|
|-----------------------------------------------------------------|
|-----------------------------------------------------------------|
|-----------------------------------------------------------------|

|-----------------------------------------------------------------|
|--------20---(20)--------------19------(19)----------------------|
|-8/21--------(21)---21\20--20----------(20)----------------------|
|-----------------------------------------------------------------|
|-----------------------------------------------------------------|
|-----------------------------------------------------------------|
                                                Bend Full
|-----------------------------------------------------------------|
|-----------20-----(20)----------19----(19)-----------------------|
|--20/21-----------(21)---21/20--------(20)--20^--------(20)\-----|
|-----------------------------------------------------------------|
|-----------------------------------------------------------------|
|-----------------------------------------------------------------|
P.M..........  ...                         Play 4 times
|-----------------------------------------------------------------|
|-----------------------------------------------------------------|
|-----------------------------------------------------------------|
|-----------------------------------------------------------------|
|------------3-----3--6-----6--5----------------------------------|
|0--0--0--0--1--0--1--4-----4--3----------------------------------|

|-----------------------------------------------------------------|
|-----------------------------------------------------------------|
|-----------------------------------------------------------------|
|-----------------------------------------------------------------|
|--------6--5------5~~~~~----5--4----4------4--3------------------|
|-0------------6------------------5--------------4--0----X\-------|
Verse Rhythm w/"Land of anger, I didnt ask to be born" etc
   P.M... .....         ..........     ............
|-----------------------------------------------------------------|
|-----------------------------------------------------------------|
|-----------------------------------------------------------------|
|-----------------------------------------------------------------|
|2-------3------5-6---5-------------5/6------------5/6\3----------|
|0--0-0--1--0-0-3/4---3--0-0-0-0-0--3/4--0-0-0-0-0-3/3\1----------|
                ^
    combine     |
 P.M.............
|-----------------------------------------------------------------|
|-----------------------------------------------------------------|
|-----------------------------------------------------------------|
|-----------------------------------------------------------------|
|-----------------------------------------------------------------|
|-0-0-0-0-0-0-0---------------------------------------------------|
P.M......       P.M   .......................     ................
|-----------------------------------------------------------------|
|-----------------------------------------------------------------|
|-----------------------------------------------------------------|
|----------4-----------------------------------4------------------|
|-------------3-----3----------------------------3----------------|
|0-2-2-2-2-------2----2-2-2--2-2-2-2-0-2-2-2-2-----2-0-0-0-0-0-0-0|

|-----------------------------------------------------------------|
|-----------------------------------------------------------------|
|---------------------------4-------------------------------------|
|------------------5--------2-------------------5--------6--------|
|-4------2--4--5---3------------4------2--4--5--3-----5--4--------|
|-2------0--2--3----------------2------0--2--3--------3-----------|
w/ "A world full of ***" etc....
P.M...........   ........   ...........
|-----------------------------------------------------------------|
|-----------------------------------------------------------------|
|-----------------------------------------------------------------|
|---------------3----------------------------6--------------------|
|---------------1---------4---------------5--4--------------------|
|-0-0-0-0-0-0-0---0-0-0-0-2--0-0-0-0--0-0-3-----------------------|

|-----------------------------------------------------------------|
|-----------------------------------------------------------------|
|------------------------------------5----------------------------|
|--4----5-4h5p4\2-4----5--4h5p4\2---------------------------------|
|-----------------------------------------------------------------|
|-----------------------------------------------------------------|
 
|-----------------------------------------------------------------|
|-----------------------------------------------------------------|
|-----------------------------------------------------------------|
|--4--------5--4h5p4\2--4----4/5--5/7---7/9\5---------------------|
|-----------------------------------------------------------------|
|-----------------------------------------------------------------|
verse 2 w/ "War of races" etc
Chorus w/ rhy fig 1
w/ "we're dead embryonic cells"
|-----------------------------------------------------------------|
|-----------------------------------------------------------------|
|-----------------------------------------------------------------|
|-3-2-3-----------------------------------------------------------|
|-1-0-1----7--6---3--4--------------------------------------------|
|----------5--4---1--2--------------------------------------------|
Riff A
P.M..  ..   ....  ....    .                    Play 3 times
|-----------------------------------------------------------------|
|-----------------------------------------------------------------|
|-----------------------------------------------------------------|
|-----4----------2------1----3/4--1-------------------------------|
|---------3---------------1--1/2--3-------------------------------|
|-2-2---2---2-2----2-2--------------------------------------------|
RIFF B
P.M....  ....  ....    ......  ..
|-----------------------------------------------------------------|
|-----------------------------------------------------------------|
|-----------------------------------------------------------------|
|------4--------------2-------1-0---------------------------------|
|------------3---------------------3---3--------------------------|
|-2-2-----2-----2-2------2-2-------1---1--------------------------|
RIFF C w/Corrosion inside we feel
   P.M.........  ..............................
|-----------------------------------------------------------------|
|-----------------------------------------------------------------|
|-----------------------------------------------------------------|
|-2---------------------------------------------------------------|
|---------------3-------------------------------3--3--------------|
|---1-1-1-1-1-1---1-1-1-1-1-1-1-1-1-1-1-1-1-1-1-1--1--------------|
These above riffs trade of in this verse soo listen to the song and
figure it out
HEAVY P.M........................................................
|-----------------------------------------------------------------|
|-----------------------------------------------------------------|
|-----------------------------------------------------------------|
|-----------------------------------------------------------------|
|-----------------------------------------------------------------|
|-2-2-2-2-2-2-2-2-2-2-2-2-2-2-2-2-2-2-2-2-2-2-2-2-2-2-2-2-2-2-----|
Riff D
P.M.....................................  ..........
|-----------------------------------------------------------------|
|-----------------------------------------------------------------|
|-----------------------------------------------------------------|
|-----------------------------------------------------------------|
|----------------------------------------5-----------6------------|
|0-0-0-0-0-0-0-0-0-0-0-0-0-0-0-0-3-3-3-3---3-4-4-4-4----0---------|

 w/ riff d 4 times
    FULL              FULL     *TREM PICK

|-22^---------------22^--^-----22------------------15-15-19-19-19-|
|------------------------------//------------15-15----------------|
|------------------------------//---------------------------------|
|------------------------------//---------------------------------|
|-----------------------------------------------------------------|
|-----------------------------------------------------------------|

|19-15-15h17p15---15----X-----------------------------------------|
|--------------17---------15h17p15-15-------15-17p15--------------|
|-------------------------------------15-16----------16-15-16-----|
|-----------------------------------------------------------------|
|-----------------------------------------------------------------|
|-----------------------------------------------------------------|

|-----------------------------------------------------------------|
|15h17p15----------15-15h17-------------15-17p15------------------|
|---------16-15-16----------16-16-15-16----------16\14-14-12-14---|
|-----------------------------------------------------------------|
|-----------------------------------------------------------------|
|-----------------------------------------------------------------|

|-----------------------------------------------------------------|
|-----------------------------------------------------------------|
|-----------------------------------------------------------4-4-4-4
|-12-12-14----12--------------------------12-14----14--(14)-------|
|----------14-----12h14p12----------12-14-------------------------|
|--------------------------14p12-12-------------------------------|
w/Riff C 4 times

|-----------------------------------------------------------------|
|-----------------------------------------------------------7h8---|
|/9-9-9-9-9---7h9--9-9--9-9--7h9-9-9-9-9--7h9-9-9-9-9-9-99--------|
|-----------------------------------------------------------------|
|-----------------------------------------------------------------|
|-----------------------------------------------------------------|

|-----------------------------------------------T-----T-----------|
|-10p8p7--7h8h10---------7h8-10p8p7-------------22p17-20p17p12h15-|
|----------------9-9-7h9-------------9-7-9~~~~\-------------------|
|-----------------------------------------------------------------|
|-----------------------------------------------------------------|
|-----------------------------------------------------------------|

|-T-----T------------T--------------------------------------------|
|-22p17-20p17p12h15--22p17p12h---T-----------17--T----------------|
|-----------------------------17-19p17p12g15h----19p17p12---------|
|-----------------------------------------------------------------|
|-----------------------------------------------------------------|
|-----------------------------------------------------------------|

|-----------------------------------------------------------------|
|---------------T-------------------------------------------------|
|---------------17p12---------------------------------------------|
|--17p15p12h15----------17p12--17p12-17p12------------------------|
|------------------------------------------15-17p12h15-17p15-17p12|
|-----------------------------------------------------------------|

|-----------------------------------------------------------------|
|-----------------------------------------------------------------|
|-----------------------------------------------------------------|
|-----------------------------------------------------------------|
|-----------------------------------------------------------------|
|--12--(12)-\\\\\\\\\\\\\\\\\\\\\\\

Important: The song above is NOT stored on the Chordie server. The original song is hosted at www.xguitar.com. Chordie works as a search engine and provides on-the-fly formatting. Chordie does not index songs against artists'/composers' will. To remove this song please click here.

This song is displayed as text-only. Transposing and tuning is only available for chordpro-songs.

Login - add to songbook

Rating click stars to rate

Layout
Accuracy

SHARE PAGE  




You need to log in to post comments