Guitar Tabs, Chords and Lyrics


Meaningless Movements   Sepultura



Artist: Sepultura
Song: meaningless movements
Album: Arise 
 

 124 bpm
|-----------------|-----------------|-----------------|-----------------||
|-----------------|-----------------|-----------------|-----------------||
|-----------------|-----------------|-----------------|-----------------||
|-----------------|-----------------|-----------------|-----------------||
|-----1-----1-----|-----1---121-----|-----1-----1-----|-----1---121-----||
|-0000--0000------|-0000--00--------|-0000--0000------|-0000--00--------||

|-----------------|-----------------|-----------------|-----------------|
|-----------------|-----------------|-----------------|-----------------|
|-----------------|-----------------|-----------------|-----------------|
|-----3-----3-----|-----3---343-----|-----3-----3-----|-----3---343-----|
|-----1-----1-----|-----1---121-----|-----1-----1-----|-----1---121/x\--|
|-0000--0000------|-0000--00--------|-0000--0000------|-0000--00--------|

|---------------------|---------------------||-------------------|
|---------------------|---------------------||-------------------|
|---------------------|---------------------||-------------------|
|---------------------|---------------------||-------------3---3-|
|-2222-2222-2222-2222-|-2222-2222-2222-2222-||-2222-2222---1---1-|
|-0000-0000-0000-0000-|-0000-0000-0000-0000-||-0000-0000-00--00--|
|---------------------|---------------------||-------------------|
|---------------------|---------------------||-------------------|
|---------------------|---------------------||-------------------|
|---------------------|---------------------||-------------3---3-|
|-2-------------------|(2)------------------||-2222-2222---1---1-|
|-0-------------------|(0)------------------||-0000-0000-00--00--|

|-------------------|-------------------|-------------------||
|-------------------|-------------------|-------------------||
|-------------------|-------------------|-------------------||
|-------------3---3-|-------------3---3-|-------------3---3-||
|-2222-2222---1---1-|-2222-2222---1---1-|-2222-2222---1---1-||
|-0000-0000-00--00--|-0000-0000-00--00--|-0000-0000-00--00--||

|-----------------|-----------------|-----------------|-----------------||
|-----------------|-----------------|-----------------|-----------------||
|-----------------|-----------------|-----------------|-----------------||
|-----3-----3-----|-----3---343-----|-----3-----3-----|-----3---343-----||
|-----1-----1-----|-----1---121-----|-----1-----1-----|-----1---121-----||
|-0000--0000--0000|-0000--00----0000|-0000--0000--0000|-0000--00----0000||

 verse 1
|-----------------|-----------------|-----------------|-----------------||
|-----------------|-----------------|-----------------|-----------------||
|-----------------|-----------------|-----------------|-----------------||
|-----3-----3-----|-----3---343-----|-----3-----3-----|-----3---343-----||
|-----1-----1-----|-----1---121-----|-----1-----1-----|-----1---121-----||
|-0000--0000--0000|-0000--00----0000|-0000--0000--0000|-0000--00----0000||

|-----------------|-----------------|-----------------|-----------------||
|-----------------|-----------------|-----------------|-----------------||
|-----------------|-----------------|-----------------|-----------------||
|-----------------|-----------------|-----------------|-----------------||
|-2-----4-2-----4-|-3-----3-6---6---|-2-----4-2-----4-|-3-----3-6---6---||
|-0---xx2-0---xx2-|-1---xx1-4---4---|-0---xx2-0---xx2-|-1---xx1-4---4---||

|-----------------|-----------------|-----------------|-----------------||
|-----------------|-----------------|-----------------|-----------------||
|-13----1416--16--|-14----1617--17--|-13----1416--16--|-14----1617--17--||
|-----------------|-----------------|-----------------|-----------------||
|-11----1214--14--|-12----1415--15--|-11----1214--14--|-12----1415--15--||
|-----------------|-----------------|-----------------|-----------------||
|
|-----------------|-----------------|-----------------|-----------------||
|-----------------|-----------------|-----------------|-----------------||
|-9-----1113--13--|-10----1314--14--|-9-----1113--13--|-10----1314--14--||
|-----------------|-----------------|-----------------|-----------------||
|-7-----9-11--11--|-8-----1112--12--|-7-----9-11--11--|-8-----1112--12--||
|-----------------|-----------------|-----------------|-----------------||
|
|-----------------|-----------------|-----------------|-----------------||
|-----------------|-----------------|-----------------|-----------------||
|-----------------|-----------------|-----------------|-----------------||
|-----------------|-----------------|-----------------|-----------------||
|-2-----4-2-----4-|-3-----3-6---6---|-2-----4-2-----4-|-3-----3-6---6---||
|-0---xx2-0---xx2-|-1---xx1-4---4---|-0---xx2-0---xx2-|-1---xx1-4---4---||

 chorus
|-------------------|--------------------|-------------------|--------------------||
|-------------------|--------------------|-------------------|--------------------||
|-7/9------7/9------|-7/9--9/10-9/10-----|-7/9------7/9------|-7/9--9/10-9/10-----||
|-------------------|--------------------|-------------------|--------------------||
|-5/7------5/7------|-5/7--7/8--7/8------|-5/7------5/7------|-5/7--7/8--7/8------||
|----000000---000000|----00---00---000000|----000000---000000|----00---00---000000||

|-----------------|-----------------|-----------------|-----------------||
|-----------------|-----------------|-----------------|-----------------||
|-----------------|-----------------|-----------------|-----------------||
|-----------------|-----------------|-----------------|-----------------||
|-2-----4-2----4--|-3-----3-6---6---|-2-----4-2----4--|-3-----3-6---6---||
|-0---xx2-0---x2--|-1---xx1-4---4---|-0---xx2-0---x2--|-1---xx1-4---4---||

 verse 2
|-----------------|-----------------|-----------------|-----------------|
|-----------------|-----------------|-----------------|-----------------|
|-----------------|-----------------|-----------------|-----------------|
|-----3-----3-----|-----3---343-----|-----3-----3-----|-----3---343-----|
|-----1-----1-----|-----1---121-----|-----1-----1-----|-----1---121-----|
|-0000--0000--0000|-0000--00----0000|-0000--0000--0000|-0000--00----0000|

|-----------------|-----------------|-----------------|-----------------||
|-----------------|-----------------|-----------------|-----------------||
|-----------------|-----------------|-----------------|-----------------||
|-----3-----3-----|-----3---343-----|-----3-----3-----|-----3---343-----||
|-----1-----1-----|-----1---121-----|-----1-----1-----|-----1---121-----||
|-0000--0000--0000|-0000--00----0000|-0000--0000--0000|-0000--00----0000||
                      2/4       4/4
|---------------------|---------|-----------------||
|---------------------|---------|-----------------||
|---------------------|---------|-----------------||
|-8---7---------------|-8---7---|-----------------||
|-6---5---------------|-6---5---|-5555555555555555||
|---------000000000000|---------|-3333333333333333||

#cutline#
|-----------------|------------------|------------------|------------------|
|-----------------|------------------|------------------|------------------|
|-----------------|------------------|------------------|------------------|
|-5---5---5---5---|------5---5---5---|------5---5---5---|------5---5---5---|
|---------------6-|-6\5------------6-|-6\5------------6-|-6\5------------6-|
|--333-333-333-34-|-4\333-333-333-34-|-4\333-333-333-34-|-4\333-333-333-34-|
|
|-----------------|------------------|------------------|------------------|
|-----------------|------------------|------------------|------------------|
|-----------------|------------------|------------------|------------------|
|-----------------|------------------|------------------|------------------|
|-5-------------6-|-6\5------------6-|-6\5------------6-|-6\5------------6-|
|-3-------------4-|-4\3------------4-|-4\3------------4-|-4\3------------4-|

|-----------------|------------------|------------------|------------------|
|-----------------|------------------|------------------|------------------|
|-----------------|------------------|------------------|------------------|
|-----4-----------|------4-----------|------4-----------|------4-----------|
|-4-------4---3-5-|-5\4------4---3-5-|-5\4------4---3-5-|-5\4------4---3-4-|
|-2222-222-222-23-|-3\222-222-222-23-|-3\222-222-222-23-|-3\222-222-222-22-|
|
|-----------------|------------------|------------------|------------------|
|-----------------|------------------|------------------|------------------|
|-----------------|------------------|------------------|------------------|
|-----------------|------------------|------------------|------------------|
|-4-------------5-|-5\4------------5-|-5\4------------5-|-5\4------------4-|
|-2-------------3-|-3\2------------3-|-3\2------------3-|-3\2------------2-|

|-----------------|------------------|------------------|------------------|
|-----------------|------------------|------------------|------------------|
|-----------------|------------------|------------------|------------------|
|-----5---5---5---|------5---5---5---|------5---5---5---|------5---5---5---|
|-5-------------6-|-6\5------------6-|-6\5------------6-|-6\5------------6-|
|-3333-333-333-34-|-4\333-333-333-34-|-4\333-333-333-34-|-4\333-333-333-34-|
|
|-----------------|------------------|------------------|------------------|
|-----------------|------------------|------------------|------------------|
|-----------------|------------------|------------------|------------------|
|-----------------|------------------|------------------|------------------|
|-5-------------6-|-6\5------------6-|-6\5------------6-|-6\5------------6-|
|-3-------------4-|-4\3------------4-|-4\3------------4-|-4\3------------4-|

|-----------------||
|-----------------||
|-----------------||
|-----------------||
|-----------------||
|-33333333333333x\||

 bridge
|-----------------|------------------|------------------|------------------|
|-----------------|------------------|------------------|------------------|
|-----------------|------------------|------------------|------------------|
|---------------6-|----------------6-|----------------6-|----------------6-|
|---------------4-|-6\5------------4-|-6\5------------4-|-6\5------------4-|
|-33333333333333--|-4\3333333333333--|-4\3333333333333--|-4\3333333333333--|

|-----------------|------------------|------------------|------------------|
|-----------------|------------------|------------------|------------------|
|-----------------|------------------|------------------|------------------|
|-----4-----------|------4-----------|------4-----------|------4-----------|
|-4-------4---3-5-|-5\4------4---3-5-|-5\4------4---3-5-|-5\4------4---3-4-|
|-2222-222-222-23-|-3\222-222-222-23-|-3\222-222-222-23-|-3\222-222-222-22-|

|-----------------|------------------|------------------|------------------||
|-----------------|------------------|------------------|------------------||
|-----------------|------------------|------------------|------------------||
|---------------6-|----------------6-|----------------6-|----------------6-||
|---------------4-|-6\5------------4-|-6\5------------4-|-6\5------------4-||
|-33333333333333--|-4\3333333333333--|-4\3333333333333--|-4\3333333333333--||

|--------------------|--------------------|--------------------|
|--------------------|--------------------|--------------------|
|-5\4--8\7--9\8------|-5\4--8\7--9\8------|-5\4--8\7--9\8------|
|--------------------|--------------------|--------------------|
|-3\2--6\5--7\6------|-3\2--6\5--7\6------|-3\2--6\5--7\6------|
|----00---00---0-0-0-|----00---00---0-0-0-|----00---00---0-0-0-|

6/4
|----------------------------||
|----------------------------||
|-5\4--8\7--9\8--------------||
|----------------------------||
|-3\2--6\5--7\6--------------||
|----00---00---0-0-0-0-0-0-0-||

 4/4
|-----------------|-----------------|-----------------|-----------------||
|-----------------|-----------------|-----------------|-----------------||
|-----------------|-----------------|-----------------|-----------------||
|-8---7-----------|-8---7-----------|-8---7-----------|-8---7-----------||
|-6---5-----------|-6---5-----------|-6---5-----------|-6---5-----------||
|---------0-0-0-0-|---------0-0-0-0-|---------0-0-0-0-|---------0-0-0-0-||
|
|-----------------|-----------------|-----------------|-----------------||
|-----------------|-----------------|-----------------|-----------------||
|-----------------|-----------------|-----------------|-----------------||
|-----------------|-----------------|-----------------|-----------------||
|-6---5-----------|-6---5-----------|-6---5-----------|-6---5-----------||
|-6---5---0-0-0-0-|-6---5---0-0-0-0-|-6---5---0-0-0-0-|-6---5---0-0-0-0-||

|-----------------|-----------------|-----------------|-----------------||
|-----------------|-----------------|-----------------|-----------------||
|-----------------|-----------------|-----------------|-----------------||
|-8---7-----------|-8---7-----------|-8---7-----------|-8---7-----------||
|-6---5-----2---2-|-6---5-----2---2-|-6---5-----2---2-|-6---5-----2---2-||
|---------000-000-|---------000-000-|---------000-000-|---------000-000-||

 guitar solo
|-----------------|-----------------|-----------------|-----------------|
|-----------------|-----------------|-----------------|-----------------|
|-----------------|-----------------|-----------------|-----------------|
|-----------------|-----------------|-----------------|-----------------|
|-----------6---6-|-----------6---6-|-----------6---6-|-----------6---6-|
|-00000000006-006-|-00000000006-006-|-00000000006-006-|-00000000006-006-|

|-----------------|-----------------|-----------------|-----------------||
|-----------------|-----------------|-----------------|-----------------||
|-----------------|-----------------|-----------------|-----------------||
|-----------------|-----------------|-----------------|-----------------||
|-----------6---6-|-----------6---6-|-----------6---6-|-----------6---6-||
|-00000000006-006-|-00000000006-006-|-00000000006-006-|-00000000006-006-||

|-----------------|-----------------|---------------------|-------------------||
|-----------------|-----------------|---------------------|-------------------||
|-----------------|-----------------|---------------------|-------------------||
|-------------10--|-----------------|-----------------10--|-------------------||
|-----2-------8---|-----4---4---5---|-------2---------8---|-------4---4---5---||
|-00-00---00-0----|-00-04---4---5---|-0000000---000000----|-0000004---4---5---||
|-----------------|-----------------|---------------------|-------------------||
|-----------------|-----------------|---------------------|-------------------||
|-----------------|-----------------|---------------------|-------------------||
|-------------10--|-----6---6---7---|-----------------10--|-------6---6---7---||
|-----2-------8---|-----4---4---5---|-------2---------8---|-------4---4---5---||
|-00-00---00-0----|-00-0------------|-0000000---000000----|-000000------------||
 guitar solo II
|-----------------|-----------------|-----------------|-----------------|
|-----------------|-----------------|-----------------|-----------------|
|-----------------|-----------------|-----------------|-----------------|
|-----------------|-----------------|-----------------|-----------------|
|-----------6---6-|-----------6---6-|-----------6---6-|-----------6---6-|
|-00000000006-006-|-00000000006-006-|-00000000006-006-|-00000000006-006-|

|-----------------|-----------------|-----------------|-----------------||
|-----------------|-----------------|-----------------|-----------------||
|-----------------|-----------------|-----------------|-----------------||
|-----------------|-----------------|-----------------|-----------------||
|-----------6---6-|-----------6---6-|-----------6---6-|-----------6---6-||
|-00000000006-006-|-00000000006-006-|-00000000006-006-|-00000000006-006-||

|-----------------|-----------------|-----------------|-----------------|
|-----------------|-----------------|-----------------|-----------------|
|-----------------|-----------------|-----------------|-----------------|
|-------------10--|-----------------|-------------10--|-----------------|
|-----2-------8---|-----4---4---5---|-----2-------8---|-----4---4---5---|
|-00-00---00-0----|-00-04---4---5---|-00000---0000----|-00004---4---5---|
|
|-----------------|-----------------|-----------------|-----------------|
|-----------------|-----------------|-----------------|-----------------|
|-----------------|-----------------|-----------------|-----------------|
|-------------10--|-----6---6---7---|-------------10--|-----6---6---7---|
|-----2-------8---|-----4---4---5---|-----2-------8---|-----4---4---5---|
|-00-00---00-0----|-00-0------------|-00000---0000----|-0000------------|

|-----------------|-----------------||
|-----------------|-----------------||
|-----------------|-----------------||
|-----------------|-----------------||
|-----------------|-----------------||
|-0000000000000000|-0000000000000000||
 248 bpm

 verse 3
|-----------------|-----------------|-----------------|-----------------|
|-----------------|-----------------|-----------------|-----------------|
|-----------------|-----------------|-----------------|-----------------|
|-----------------|-----------------|-----------------|-----------------|
|-----------------|---------4---4---|-----------------|---------4---4---|
|-2333333333333333|-522222222---2---|-2333333333333333|-522222222---2---|

|-----------------|-----------------|-----------------|-----------------||
|-----------------|-----------------|-----------------|-----------------||
|-----------------|-----------------|-----------------|-----------------||
|-----------------|-----------------|-----------------|-----------------||
|-----------------|---------4---4---|-----------------|---------4---4---||
|-2333333333333333|-522222222---2---|-2333333333333333|-522222222---2---||

|-----------------|-----------------|-----------------|-----------------|
|-----------------|-----------------|-----------------|-----------------|
|-----------------|-----------------|-----------------|-----------------|
|-----------------|-----------------|-----------------|-----------------|
|-----------------|---------2---2---|-----------------|---------2---2---|
|-1111111111111111|-11111111--4---4-|-1111111111111111|-11111111--4---4-|

|-----------------|-----------------|-----------------|-----------------||
|-----------------|-----------------|-----------------|-----------------||
|-----------------|-----------------|-----------------|-----------------||
|-----------------|-----------------|-----------------|-----------------||
|-----------------|---------2---2---|-----------------|---------2---2---||
|-1111111111111111|-11111111--4---4-|-1111111111111111|-11111111--4---4-||

 124 bpm
|-----------------|-------------||
|-----------------|-------------||
|-----------------|-------------||
|-----------------|-------------||
|---2-------2-2---|-2-------2-2-||
|-000-0000000-0-00|-0-0000000-0-||

 verse 4
|-----------------|-----------------|-----------------|-----------------|
|-----------------|-----------------|-----------------|-----------------|
|-----------------|-----------------|-----------------|-----------------|
|-----3-----3-----|-----3---343-----|-----3-----3-----|-----3---343-----|
|-----1-----1-----|-----1---121-----|-----1-----1-----|-----1---121-----|
|-0000--0000--0000|-0000--00----0000|-0000--0000--0000|-0000--00----0000|

|-----------------|-----------------|-----------------|-----------------||
|-----------------|-----------------|-----------------|-----------------||
|-----------------|-----------------|-----------------|-----------------||
|-----3-----3-----|-----3---343-----|-----3-----3-----|-----3---343-----||
|-----1-----1-----|-----1---121-----|-----1-----1-----|-----1---121-----||
|-0000--0000--0000|-0000--00----0000|-0000--0000--0000|-0000--00----0000||
                                      chorus
|-----------------|-----------------||-------------------|--------------------|
|-----------------|-----------------||-------------------|--------------------|
|-----------------|-----------------||-7/9------7/9------|-7/9--9/10-9/10-----|
|-----------------|-----------------||-------------------|--------------------|
|-2-----3-2-------|-2-----3-2-------||-5/7------5/7------|-5/7--7/8--7/8------|
|-0---001-0---0000|-0---001-0---0000||----000000---000000|----00---00---000000|

|-------------------|--------------------|-----------------||
|-------------------|--------------------|-----------------||
|-7/9------7/9------|-7/9--9/10-9/10-----|-----------------||
|-------------------|--------------------|-----------------||
|-5/7------5/7------|-5/7--7/8--7/8------|-----1-----1-----||


Important: The song above is NOT stored on the Chordie server. The original song is hosted at www.xguitar.com. Chordie works as a search engine and provides on-the-fly formatting. Chordie does not index songs against artists'/composers' will. To remove this song please click here.

This song is displayed as text-only. Transposing and tuning is only available for chordpro-songs.

Login - add to songbook

Rating click stars to rate

Layout
Accuracy

SHARE PAGE  




You need to log in to post comments