Guitar Tabs, Chords and Lyrics


Murder   Sepultura



Artist: Sepultura
Song: Murder
Album: Arise
-------------|-----------------|-----------------|-----------------|-----------------|
-------------|-----------------|-----------------|-----------------|-----------------|
-------------|-----------------|-----------------|-----------------|-----------------|
-------------|-----------------|-----------------|-----------------|-----------------|
-7---3---6---|-----------------|-----7---3---6---|-----------------|-----7---3---6---|
-7---3---6---|-000-000-000-000-|-000-7---3---6---|-000-000-000-000-|-000-7---3---6---|

|-----------------|-----------------|-----------------|-----------------|
|-----------------|-----------------|-----------------|-----------------|
|-----------------|-----------------|-----------------|-----------------|
|-----------------|-----------------|-----------------|-4-------3-------|
|-----------------|-----7---3---6---|-----------------|-2-------1-------|
|-000-000-000-000-|-000-7---3---6---|-000-000-000-000-|-----------------|

|-----------------|-----------------|-----------------|---------------------|
|-----------------|-----------------|-----------------|---------------------|
|-----------------|-----------------|-----------------|---------------------|
|-8---------------|(8)------8\7-7-7-|-7/10----10------|(10)---10-10/11-11-11|
|-----------------|-----------------|-----------------|---------------------|
|-6---------------|(6)------6\5-5-5-|-5/8-----8-------|(8)----8---8/9--9--9-|
|
|-----------------|-----------------|-----------------|-----------------|
|-----------------|-----------------|-----------------|-----------------|
|-----------------|-----------------|-----------------|-----------------|
|-----------------|-----------------|-----------------|-----------------|
|-----------------|-----------------|-----------------|-----------------|
|-000-000-000-000-|-000-000-000-000-|-000-000-000-000-|-000-000-000-000-|

|-----------------|-----------------|-----------------|-------------------|
|-----------------|-----------------|-----------------|-------------------|
|-----------------|-----------------|-----------------|-------------------|
|11\8---8-8-------|(8)------8\7-7-7-|-7/10----------10|(10)10--1010\5-5-5-|
|-----------------|-----------------|-----------------|-------------------|
|-9\6---6-6-------|(6)------6\5-5-5-|-5/8-----------8-|(8)-8---8--8\3-3-3-|
|
|-----------------|-----------------|-----------------|-----------------|
|-----------------|-----------------|-----------------|-----------------|
|-----------------|-----------------|-----------------|-----------------|
|-----------------|-----------------|-----------------|-----------------|
|-----------------|-----------------|-----------------|-----------------|
|-000-000-000-000-|-000-000-000-000-|-000-000-000-000-|-000-000-000-000-|
 slower 196 bpm
|-----------------|-----------------|-----------------|-----------------||
|-----------------|-----------------|-----------------|-----------------||
|-----------------|-----------------|-----------------|-----------------||
|-----------------|-----------------|-----------------|---------4-----3-||
|-2---------------|(2)--------------|-2---------------|(2)------2-----1-||
|-0---------------|(0)--------------|-0---------------|(0)----------2---||
|
|-----------------|-----------------|-----------------|-----------------||
|-----------------|-----------------|-----------------|-----------------||
|-----------------|-----------------|-----------------|-----------------||
|-----------------|-----------------|-----------------|-----------------||
|-2---------------|(2)--------------|-2---------------|(2)--------------||
|-0---------------|(0)--------------|-0---------------|(0)--------------||

|-----------------|-----------------|-----------------|-----------------|
|-----------------|-----------------|-----------------|-----------------|
|-----------------|-----------------|-----------------|-----------------|
|-----------------|---------4-----3-|-----------------|---------4-----3-|
|-2-2-2-2-2-2-2-2-|-2-2-2-2-2-----1-|-2-2-2-2-2-2-2-2-|-2-2-2-2-2-----1-|
|-0-0-0-0-0-0-0-0-|-0-0-0-0-----2---|-0-0-0-0-0-0-0-0-|-0-0-0-0-----2---|

|-----------------|-----------------|-----------------|-----------------||
|-----------------|-----------------|-----------------|-----------------||
|-----------------|-----------------|-----------------|---------4-----3-||
|-----------------|---------4-----3-|-----------------|---------2-----1-||
|-2-2-2-2-2-2-2-2-|-2-2-2-2-2-----1-|-2-2-2-2-2-2-2-2-|-2-2-2-2-2-----1-||
|-0-0-0-0-0-0-0-0-|-0-0-0-0-----2---|-0-0-0-0-0-0-0-0-|-0-0-0-0-----0---||
 verse 1
|-----------------|-----------------|-----------------|-----------------|
|-----------------|-----------------|-----------------|-----------------|
|(3)--------------|---------4-----3-|(3)--------------|---------4-----3-|
|(1)--------------|---------2-----1-|(1)--------------|---------2-----1-|
|(1)2-2-2-2-2-2-2-|-2-2-2-2-2-----1-|(1)2-2-2-2-2-2-2-|-2-2-2-2-2-----1-|
|---0-0-0-0-0-0-0-|-0-0-0-0-----0---|---0-0-0-0-0-0-0-|-0-0-0-0-----0---|

|-----------------|-----------------|-----------------|-----------------||
|-----------------|-----------------|-----------------|-----------------||
|(3)--------------|---------4-----3-|(3)--------------|-----------------||
|(1)--------------|---------2-----1-|(1)--------------|-----------------||
|(1)2-2-2-2-2-2-2-|-2-2-2-2-2-----1-|(1)2-2-2-2-2-2-2-|-2-2-2-2-2-2-2-2-||
|---0-0-0-0-0-0-0-|-0-0-0-0-----0---|---0-0-0-0-0-0-0-|-0-0-0-0-0-0-0-0-||

|-----------------|-----------------|-----------------|-----------------|
|-----------------|-----------------|-----------------|-----------------|
|-----------------|-----------------|-----------------|-----------------|
|-----------4-----|-5-------5---5---|-----------4-----|-5-------5---5---|
|-4-------3---3-0-|-3---3-3-3---3---|-4-------3---3-0-|-3---3-3-3---3---|
|-2-----2---------|-----------------|-2-----2---------|-----------------|
|
|-----------------|-----------------|-----------------|-----------------|
|-----------------|-----------------|-----------------|-----------------|
|-----------------|-----------------|-----------------|-----------------|
|-----------4-----|-5-------5-5-5-5-|-----------4-----|-5-------5---5---|
|-4-------3---3---|-3---3-3-3-3-3-3-|-4-------3---3---|-3---3-3-3---3---|
|-2-----2-------2-|-----------------|-2-----2-------2-|-----------------|

|-----------------|-----------------|-----------------|-----------------||
|-----------------|-----------------|-----------------|-----------------||
|-----------------|-----------------|-----------------|-----------------||
|-----------4-----|-5-------5---5---|-----------4-----|-5---5---5---5---||
|-4-------3---3-0-|-3---3-3-3---3---|-4-------3---3-0-|-3---3---3---3---||
|-2-----2---------|-----------------|-2-----2---------|-----------------||
|
|-----------------|-----------------|-----------------|-----------------||
|-----------------|-----------------|-----------------|-----------------||
|-----------------|-----------------|-----------------|-----------------||
|-----------4-----|-5-------5-5-5-5-|-----------4-----|-5-------5---5---||
|-4-------3---3---|-3---3-3-3-3-3-3-|-4-------3---3---|-3---3-3-3---3---||
|-2-----2-------2-|-----------------|-2-----2-------2-|-----------------||
 verse 2
|-----------------|-----------------|-----------------|-----------------|
|-----------------|-----------------|-----------------|-----------------|
|-4-----3---------|-----------------|-4-----3---------|-----------------|
|-2-----1---------|-----------------|-2-----1---------|-----------------|
|-2-----1---2-2-2-|-2-2-2-2-2-2-2-2-|-2-----1---2-2-2-|-2-2-2-2-2-2-2-2-|
|-----0-----0-0-0-|-0-0-0-0-0-0-0-0-|-----0-----0-0-0-|-0-0-0-0-0-0-0-0-|

|-----------------|-----------------|-----------------|-----------------||
|-----------------|-----------------|-----------------|-----------------||
|-4-----3---------|-----------------|-4-----3---------|-----------------||
|-2-----1---------|-----------------|-2-----1---------|-----------------||
|-2-----1---2-2-2-|-2-2-2-2-2-2-2-2-|-2-----1---2-2-2-|-2-2-2-2-2-2-2-2-||
|-----0-----0-0-0-|-0-0-0-0-0-0-0-0-|-----0-----0-0-0-|-0-0-0-0-0-0-0-0-||

|-----------------|-----------------|-----------------|-----------------|
|-----------------|-----------------|-----------------|-----------------|
|-----------------|-----------------|-----------------|-----------------|
|-----------4-----|-5-------5---5---|-----------4-----|-5-------5---5---|
|-4-------3---3-0-|-3---3-3-3---3---|-4-------3---3-0-|-3---3-3-3---3---|
|-2-----2---------|-----------------|-2-----2---------|-----------------|
|
|-----------------|-----------------|-----------------|-----------------|
|-----------------|-----------------|-----------------|-----------------|
|-----------------|-----------------|-----------------|-----------------|
|-----------4-----|-5-------5-5-5-5-|-----------4-----|-5-------5---5---|
|-4-------3---3---|-3---3-3-3-3-3-3-|-4-------3---3---|-3---3-3-3---3---|
|-2-----2-------2-|-----------------|-2-----2-------2-|-----------------|

|-----------------|-----------------|-----------------|-----------------||
|-----------------|-----------------|-----------------|-----------------||
|-----------------|-----------------|-----------------|-----------------||
|-----------4-----|-5-------5---5---|-----------4-----|-5-------5-------||
|-4-------3---3-0-|-3---3-3-3---3---|-4-------3---3-0-|-3---3-3-3-5---5-||
|-2-----2---------|-----------------|-2-----2---------|-----------3---3-||
|
|-----------------|-----------------|-----------------|-----------------||
|-----------------|-----------------|-----------------|-----------------||
|-----------------|-----------------|-----------------|-----------------||
|-----------4-----|-5-------5-5-5-5-|-----------4-----|-5-------5-------||
|-4-------3---3---|-3---3-3-3-3-3-3-|-4-------3---3---|-3---3-3-3-5---5-||
|-2-----2-------2-|-----------------|-2-----2-------2-|-----------3---3-||
 bridge
 faster 220 bpm
|-----------------|-----------------|-----------------|-----------------|
|-----------------|-----------------|-----------------|-----------------|
|-----------------|-----------------|-----------------|-----------------|
|-----------------|-----------------|-----------------|-----------------|
|-6---------5---5-|-6---------5---5-|-6---------6---6-|-5~--------5---5-|
|-4-000-000-3---3-|-4-000-000-3---3-|-4-000-000-7---7-|-6~--------3---3-|

|-----------------|-----------------|-----------------|-----------------|
|-----------------|-----------------|-----------------|-----------------|
|-----------------|-----------------|-----------------|-----------------|
|-----------------|-----------------|-----------------|-----------------|
|-6---------5---5-|-6---------5---5-|-6---------6---6-|-5~--------5---5-|
|-4-000-000-3---3-|-4-000-000-3---3-|-4-000-000-7---7-|-6~--------3---3-|

|-----------------|-----------------|-----------------|-----------------|
|-----------------|-----------------|-----------------|-----------------|
|-----------------|-----------------|-----------------|-----------------|
|-----------------|-----------------|-----------------|-----------------|
|-6---------5---5-|-6---------5---5-|-6---------6---6-|-5~--------5---5-|
|-4-000-000-3---3-|-4-000-000-3---3-|-4-000-000-7---7-|-6~--------3---3-|

|-----------------|-----------------|-----------------|-----------------|
|-----------------|-----------------|-----------------|-----------------|
|-----------------|-----------------|-----------------|-----------------|
|-----------------|-----------------|-----------------|-----------------|
|-6---------5---5-|-6---------5---5-|-6---------7---7-|-6---------------|
|-4-000-000-3---3-|-4-000-000-3---3-|-4-000-000-7---7-|-6---------------|
                                    slower 204 bpm
|-----------------|-----------------|-----------------|-----------------||
|-----------------|-----------------|-----------------|-----------------||
|-----------------|-----------------|-----------------|-----------------||
|-----------------|-----------------|-----------------|---------------7-||
|-2---------------|-3---------------|-----------------|---------------5-||
|-2---------------|-3---------------|-0-0-0-0-0-0-0-0-|-0-0-0-0-0-0-0---||

|-----------------|-----------------|-----------------|-----------------|
|-----------------|-----------------|-----------------|-----------------|
|-----------------|-----------------|-----------------|-----------------|
|-6-------6-------|-6-------------8-|\7-----8\7-------|-----------------|
|-4-------4-------|-4-------------6-|\5-----6\5-------|-8-8-7-7-8-8-7-5-|
|-------3-------3-|-----0-0-0-0-0---|-----0-------0-0-|-6-6-5-5-6-6-7-3-|

|-----------------|-----------------|-----------------|-----------------|
|-----------------|-----------------|-----------------|-----------------|
|-----------------|-----------------|-----------------|-----------------|
|-6-------6-------|-6-------------8-|\7-----8\7-------|-----------------|
|-4-------4-------|-4-------------6-|\5-----6\5-------|-8-8-7-7-8-8-7-5-|
|-------3-------3-|-----0-0-0-0-0---|-----0-------0-0-|-6-6-5-5-6-6-7-3-|

|-----------------|-----------------|-----------------|-----------------|
|-----------------|-----------------|-----------------|-----------------|
|-----------------|-----------------|-----------------|-----------------|
|-----------------|-----------------|-----------------|-----------------|
|-4-----6-5-------|-4-----6-5-------|-4-----6-5-------|-4-----6-5-------|
|---3-0-----0-0-0-|---3-0-----0-0-0-|---3-0-----0-0-0-|---3-0-----0-0-0-|
|
|-----------------|-----------------|-----------------|-----------------|
|-----------------|-----------------|-----------------|-----------------|
|-----------------|-----------------|-----------------|-----------------|
|-----------------|-----------------|-6---------------|-6---------------|
|-5---------------|-5---------------|-4---------------|-4-------------5-|
|-3---------------|-3---------------|-----------------|---------------3-|

|-----------------|-----------------|-----------------|-----------------||
|-----------------|-----------------|-----------------|-----------------||
|-----------------|-----------------|-----------------|-----------------||
|-----------------|-----------------|-----------------|-----------------||
|-4-----6-5-------|-4-----6-5-------|-4-----6-5-------|-4-----6-5-------||
|---3-0-----0-0-0-|---3-0-----0-0-0-|---3-0-----0-0-0-|---3-0-----0-0-0-||
|
|-----------------|-----------------|-----------------|-----------------||
|-----------------|-----------------|-----------------|-----------------||
|-----------------|-----------------|-----------------|-----------------||
|-----------------|---------------6-|-6---------------|(6)--------------||
|-5-----------5---|(5)----5-------4-|-4---------------|(4)----------5\--||
|-3-----------3---|(3)----3---------|-----------------|-----------------||
 verse 3
|-----------------|-----------------|-----------------|-----------------|
|-----------------|-----------------|-----------------|-----------------|
|-4-----3---------|-----------------|-4-----3---------|-----------------|
|-2-----1---------|-----------------|-2-----1---------|-----------------|
|-2-----1---2-2-2-|-2-2-2-2-2-2-2-2-|-2-----1---2-2-2-|-2-2-2-2-2-2-2-2-|
|-----0-----0-0-0-|-0-0-0-0-0-0-0-0-|-----0-----0-0-0-|-0-0-0-0-0-0-0-0-|

|-----------------|-----------------|-----------------|-----------------||
|-----------------|-----------------|-----------------|-----------------||
|-4-----3---------|-----------------|-4-----3---------|-----------------||
|-2-----1---------|-----------------|-2-----1---------|-----------------||
|-2-----1---2-2-2-|-2-2-2-2-2-2-2-2-|-2-----1---2-2-2-|-2-2-2-2-2-2-2-2-||
|-----0-----0-0-0-|-0-0-0-0-0-0-0-0-|-----0-----0-0-0-|-0-0-0-0-0-0-0-0-||

|-----------------|-----------------|-----------------|-----------------|
|-----------------|-----------------|-----------------|-----------------|
|-----------------|-----------------|-----------------|-----------------|
|-----------------|-----------------|-----------------|-----------------|
|-4-----6-5-------|-4-----6-5-------|-4-----6-5-------|-4-----6-5-------|
|---3-0-----0-0-0-|---3-0-----0-0-0-|---3-0-----0-0-0-|---3-0-----0-0-0-|
|
|-----------------|-----------------|-----------------|-----------------|
|-----------------|-----------------|-----------------|-----------------|
|-----------------|-----------------|-----------------|-----------------|
|-----------------|---------------6-|-6---------------|-6-----------6---|
|-5---------------|(5)------------4-|-4---------------|-4-----------4---|
|-3---------------|(3)--------------|-----------------|-----------------|

|-----------------|-----------------|-----------------|-----------------||
|-----------------|-----------------|-----------------|-----------------||
|-----------------|-----------------|-----------------|-----------------||
|-----------------|-----------------|-----------------|-----------------||
|-4-----6-5-------|-4-----6-5-------|-4-----6-5-------|-4-----6-5-------||
|---3-0-----0-0-0-|---3-0-----0-0-0-|---3-0-----0-0-0-|---3-0-----0-0-0-||
|
|-----------------|-----------------|-----------------|-----------------||
|-----------------|-----------------|-----------------|-----------------||
|-----------------|-----------------|-----------------|-----------------||
|-----------------|-----------------|-6-----6---------|-6---------------||
|-5---------------|-5---------------|-4-----4---------|-4---------------||
|-3---------------|-3---------------|-----------------|-----------------||

|-----------------|-----------------|-----------------|-----------------||
|-----------------|-----------------|-----------------|-----------------||
|-----------------|-----------------|-----------------|-----------------||
|-----------------|-----------------|-----------------|-----------------||
|-4-----6-5-------|-4-----6-5-------|-4-----6-5-------|-4-----6-5-------||
|---3-0-----0-0-0-|---3-0-----0-0-0-|---3-0-----0-0-0-|---3-0-----0-0-0-||
|
|-----------------|-----------------|-----------------|-----------------||
|-----------------|-----------------|-----------------|-----------------||
|-----------------|-----------------|-----------------|-----------------||
|-----------------|-----------------|-----------------|-----------------||
|-10----1211------|-10----1211------|-10----1211------|-10----1211------||
|---9-0-----0-0-0-|---9-0-----0-0-0-|---9-0-----0-0-0-|---9-0-----0-0-0-||

|-----------------|-----------------||
|-----------------|-----------------||
|-----------------|-----------------||
|-----------------|-----------------||
|-4-----6-5-------|-4-----6-5-------||
|---3-0-----0-0-0-|---3-0-----0-0-0-||
|
|-----------------|-----------------||
|-----------------|-----------------||
|-----------------|-----------------||
|-----------------|-----------------||
|-2-------2-------|-2-------2-------||
|-0-------0-------|-0-------0-------||
 faster 226 bpm
|-----------------|-----------------|-----------------|-----------------|
|-----------------|-----------------|-----------------|-----------------|
|-----------------|-----------------|-----------------|-----------------|
|-----------------|-----------------|-----------------|-----------------|
|-4-----6-5-------|-4-----6-5-------|-4-----6-5-------|-4-----6-5-------|
|---3-0-----00000-|---3-0-----00000-|---3-0-----00000-|---3-0-----00000-|

|-----------------|-----------------|-----------------|-----------------||
|-----------------|-----------------|-----------------|-----------------||
|-----------------|-----------------|-----------------|-----------------||
|-----------------|-----------------|-----------------|-4---4---3---3---||
|-4-----6-5-------|-4-----6-5-------|-4-----6-5-------|-2---2---1---1---||
|---3-0-----00000-|---3-0-----00000-|---3-0-----00000-|-----------------||
 guitar solo
|-----------------|-----------------|-----------------|-----------------|
|-----------------|-----------------|-----------------|-----------------|
|-----------------|-----------------|-----------------|-----------------|
|-----------------|-----------------|-----------------|-----------------|
|-----------------|-----------------|-----------------|-----------------|
|-000-000-000-000-|-000-000-000-000-|-000-000-000-000-|-7-7777776-666666|

|-----------------|-----------------|-----------------|-----------------|
|-----------------|-----------------|-----------------|-----------------|
|-----------------|-----------------|-----------------|-----------------|
|-----------------|-----------------|-----------------|-----------------|
|-----------------|-----------------|-----------------|-----------------|
|-000-000-000-000-|-000-000-000-000-|-000-000-000-000-|-7-7777776-666666|

|-----------------|-----------------|-----------------|-----------------|
|-----------------|-----------------|-----------------|-----------------|
|-----------------|-----------------|-----------------|-----------------|
|-----------------|-----------------|-----------------|-----------------|
|-----------------|-----------------|-----------------|-----------------|
|-4-44444444444444|-4444444444444444|-4444444444444444|-1-1111110-000000|

|-----------------|-----------------|-----------------|-----------------|
|-----------------|-----------------|-----------------|-----------------|
|-----------------|-----------------|-----------------|-----------------|
|-----------------|-----------------|-----------------|-----------------|
|-----------------|-----------------|-----------------|-----------------|
|-4-44444444444444|-4444444444444444|-4444444444444444|-1-1111110-000000|

|-----------------|-----------------|-----------------|--------|--------||
|-----------------|-----------------|-----------------|--------|--------||
|-----------------|-----------------|-----------------|--------|--------||
|-----------------|-----------------|-----------------|-3------|(3)-----||
|-----------------|-----------------|-----------------|-1------|(1)-----||
|-000-000-000-000-|-000-000-000-000-|-000-000-000-000-|--------|--------||
 slower 204 bpm
|-----------------|-----------------|-----------------|-----------------|
|-----------------|-----------------|-----------------|-----------------|
|-----------------|-----------------|-----------------|-----------------|
|-----------------|---------4-----3-|-----------------|---------4-----3-|
|-2-2-2-2-2-2-2-2-|-2-2-2-2-2-----1-|-2-2-2-2-2-2-2-2-|-2-2-2-2-2-----1-|
|-0-0-0-0-0-0-0-0-|-0-0-0-0-----2---|-0-0-0-0-0-0-0-0-|-0-0-0-0-----2---|

|-----------------|-----------------|-----------------|-----------------|
|-----------------|-----------------|-----------------|-----------------|
|-----------------|-----------------|-----------------|-----------------|
|-----------------|---------4-----3-|-----------------|-----------------|
|-2-2-2-2-2-2-2-2-|-2-2-2-2-2-----1-|-2-2-2-2-2-2-2-2-|-2-2-2-2-2-2-2-2-|
|-0-0-0-0-0-0-0-0-|-0-0-0-0-----2---|-0-0-0-0-0-0-0-0-|-0-0-0-0-0-0-0-0-|

|-----------------|-----------------|-----------------|-----------------|
|-----------------|-----------------|-----------------|-----------------|
|-----------------|-----------------|-----------------|-----------------|
|-3---------------|(3)--------------|-3---------------|(3)------4-----3-|
|-1---------------|(1)--------------|-1---------------|(1)------2-----1-|
|-----------------|-----------------|-----------------|-------------2---|

|-----------------|-----------------|-----------------|-----------------|
|-----------------|-----------------|-----------------|-----------------|
|-----------------|-----------------|-----------------|-----------------|
|-----------------|-----------------|-----------------|-----------------|
|-2-2-2-2-2-2-2-2-|-2-2-2-2-2-2-2-2-|-2-2-2-2-2-2-2-2-|-2-2-2-2-2-2-2-2-|
|-0-0-0-0-0-0-0-0-|-0-0-0-0-0-0-0-0-|-0-0-0-0-0-0-0-0-|-0-0-0-0-0-0-0-0-|

|-----------------|-----------------|-----------------|-----------------||
|-----------------|-----------------|-----------------|-----------------||
|-----------------|-----------------|-----------------|-----------------||
|-3---------------|(3)--------------|-3---------------|(3)--------------||
|-1---------------|(1)--------------|-1---------------|(1)--------------||
|-----------------|-----------------|-----------------|-----------------||
 verse 4
|-----------------|-----------------|-----------------|-----------------|
|-----------------|-----------------|-----------------|-----------------|
|-4-----3---------|-----------------|-4-----3---------|-----------------|
|-2-----1---------|-----------------|-2-----1---------|-----------------|
|-2-----1---2-2-2-|-2-2-2-2-2-2-2-2-|-2-----1---2-2-2-|-2-2-2-2-2-2-2-2-|
|-----0-----0-0-0-|-0-0-0-0-0-0-0-0-|-----0-----0-0-0-|-0-0-0-0-0-0-0-0-|

|-----------------|-----------------|-----------------|-----------------||
|-----------------|-----------------|-----------------|-----------------||
|-4-----3---------|-----------------|-4-----3---------|-----------------||
|-2-----1---------|-----------------|-2-----1---------|-----------------||
|-2-----1---2-2-2-|-2-2-2-2-2-2-2-2-|-2-----1---2-2-2-|-2-2-2-2-2-2-2-2-||
|-----0-----0-0-0-|-0-0-0-0-0-0-0-0-|-----0-----0-0-0-|-0-0-0-0-0-0-0-0-||

|-----------------|-----------------||
|-----------------|-----------------||
|-4-----3---------|-----------------||
|-2-----1---------|-----------------||
|-2-----1---------|-----2-2-2-------||


Important: The song above is NOT stored on the Chordie server. The original song is hosted at www.xguitar.com. Chordie works as a search engine and provides on-the-fly formatting. Chordie does not index songs against artists'/composers' will. To remove this song please click here.

This song is displayed as text-only. Transposing and tuning is only available for chordpro-songs.

Login - add to songbook

Rating click stars to rate

Layout
Accuracy

SHARE PAGE  




You need to log in to post comments