Guitar Tabs, Chords and Lyrics


Subtraction   Sepultura



Artist: Sepultura
Song: Subtraction
Album: Arise
 

|-----------------|-----------------|-----------------|-----------------|
|-----------------|-----------------|-----------------|-----------------|
|-----------------|-----------------|-----------------|-----------------|
|-----------------|--------10\9-7/9-|-----------------|--------10\9-7/9-|
|-----------------|---------8\7-5/7-|-----------------|---------8\7-5/7-|
|-0-0000000-000000|-0-000000--------|-0-0000000-000000|-0-000000--------|

|-----------------|-----------------|-----------------|-----------------||
|-----------------|-----------------|-----------------|-----------------||
|-----------------|-----------------|-----------------|-----------------||
|-----------------|--------10\9-7/9-|-----------------|--------10\9-7/9-||
|-----------------|---------8\7-5/7-|-----------------|---------8\7-5/7-||
|-0-0000000-000000|-0-000000--------|-0-0000000-000000|-0-000000--------||

|-----------------|-----------------|-----------------|-----------------|
|-----------------|-----------------|-----------------|-----------------|
|-----------------|-----------------|-----------------|-----------------|
|-----------------|--------10\9-7/9-|-----------------|--------10\9-7/9-|
|-----------------|---------8\7-5/7-|-----------------|---------8\7-5/7-|
|-0-0-0-0-0-0-0-0-|-0-0-0-0---------|-0-0-0-0-0-0-0-0-|-0-0-0-0---------|

|-----------------|-----------------|-----------------|-----------------||
|-----------------|-----------------|-----------------|-----------------||
|-----------------|-----------------|-----------------|-----------------||
|-----------------|--------10\9-7/9-|-----------------|--------10\9-7/9-||
|-----------------|---------8\7-5/7-|-----------------|---------8\7-5/7-||
|-0-0-0-0-0-0-0-0-|-0-0-0-0---------|-0-0-0-0-0-0-0-0-|-0-0-0-0---------||

|-----------------|-----------------|-----------------|-----------------|
|-----------------|-----------------|-----------------|-----------------|
|-----------------|-----------------|-----------------|-----------------|
|-----------------|-----------------|-----------------|-----------------|
|-----------------|---5-----7---8---|-----------------|---5-----7---8---|
|-0-0000000-000000|-6-----6---------|-0-0000000-000000|-6-----6---------|
|
|-----------------|-----------------|-----------------|-----------------|
|-----------------|-----------------|-----------------|-----------------|
|-----------------|-----------------|-----------------|-----------------|
|-----------------|-0-------0---0---|-----------------|-0-------0---0---|
|-----------------|-1-------1---1---|-----------------|-1-------1---1---|
|-0-0000000-000000|-1-------1---1---|-0-0000000-000000|-1-------1---1---|

|-----------------|-----------------|-----------------|-----------------||
|-----------------|-----------------|-----------------|-----------------||
|-----------------|-----------------|-----------------|-----------------||
|-----------------|-----------------|-----------------|-----------------||
|-----------------|---5-----7---8---|-----------------|---5-----7---8---||
|-0-0000000-000000|-6-----6---------|-0-0000000-000000|-6-----6---------||
|
|-----------------|-----------------|-----------------|-----------------||
|-----------------|-----------------|-----------------|-----------------||
|-----------------|-----------------|-----------------|-----------------||
|-----------------|-0-------0---0---|-----------------|-0-------0---0---||
|-----------------|-1-------1---1---|-----------------|-1-------1---1---||
|-0-0000000-000000|-1-------1---1---|-0-0000000-000000|-1-------1---1---||
 verse 1
|-----------------|-----------------|-----------------|-----------------|
|-----------------|-----------------|-----------------|-----------------|
|-----------------|-----------------|-----------------|-----------------|
|-----------------|-----------------|---5-------5-----|---5-------------|
|-4---------4-----|---4-------4-----|-3-3---3-3-3---3-|-3-3---3---------|
|-2---2-2-2-2---2-|-2-2---2-2-2---0-|-----------------|---------33333333|

|-----------------|-----------------|-----------------|-----------------|
|-----------------|-----------------|-----------------|-----------------|
|-----------------|-----------------|-----------------|-----------------|
|-----------------|-----------------|---5-------5-----|---5-------------|
|-4---------4-----|---4-------4-----|-3-3---3-3-3---3-|-3-3---3---------|
|-2---2-2-2-2---2-|-2-2---2-2-2---0-|-----------------|---------33333333|

|-----------------|-----------------|-----------------|-----------------|
|-----------------|-----------------|-----------------|-----------------|
|-----------------|-----------------|-----------------|-----------------|
|-----------------|-----------------|---5-------5-----|---5-------------|
|-4---------4-----|---4-------4-----|-3-3---3-3-3---3-|-3-3---3---------|
|-2---2-2-2-2---2-|-2-2---2-2-2---0-|-----------------|---------33333333|

|-----------------|-----------------|-----------------|-----------------||
|-----------------|-----------------|-----------------|-----------------||
|-----------------|-----------------|-----------------|-----------------||
|-----------------|-----------------|---5-------5-----|---5-------------||
|-4---------4-----|---4-------4-----|-3-3---3-3-3---3-|-3-3---3---------||
|-2---2-2-2-2---2-|-2-2---2-2-2---0-|-----------------|---------33333333||

|-----------------||
|-----------------||
|-----------------||
|-----------------||
|-4---------------||
|-2---------------||

|-----------------|-----------------|-----------------|-----------------|
|-----------------|-----------------|-----------------|-----------------|
|-----------------|-----------------|-----------------|-----------------|
|-----------------|-----------------|-----------------|-----------------|
|-----------------|---5-----7---8---|-----------------|---5-----7---8---|
|-0-0000000-000000|-6-----6---------|-0-0000000-000000|-6-----6---------|
|
|-----------------|-----------------|-----------------|-----------------|
|-----------------|-----------------|-----------------|-----------------|
|-----------------|-----------------|-----------------|-----------------|
|-----------------|-0-------0---0---|-----------------|-0-------0---0---|
|-----------------|-1-------1---1---|-----------------|-1-------1---1---|
|-0-0000000-000000|-1-------1---1---|-0-0000000-000000|-1-------1---1---|

|-----------------|-----------------|-----------------|-----------------||
|-----------------|-----------------|-----------------|-----------------||
|-----------------|-----------------|-----------------|-----------------||
|-----------------|-----------------|-----------------|-----------------||
|-----------------|---5-----7---8---|-----------------|---5-----7---8---||
|-0-0000000-000000|-6-----6---------|-0-0000000-000000|-6-----6---------||
|
|-----------------|-----------------|-----------------|-----------------||
|-----------------|-----------------|-----------------|-----------------||
|-----------------|-----------------|-----------------|-----------------||
|-----------------|-0-------0---0---|-----------------|-0-------0---0---||
|-----------------|-1-------1---1---|-----------------|-1-------1---1---||
|-0-0000000-000000|-1-------1---1---|-0-0000000-000000|-1-------1---1---||
 verse 2
|-----------------|-----------------|-----------------|-----------------|
|-----------------|-----------------|-----------------|-----------------|
|-----------------|-----------------|-----------------|-----------------|
|-----------------|-----------------|---5-------5-----|---5-------------|
|-4---------4-----|---4-------4-----|-3-3---3-3-3---3-|-3-3---3---------|
|-2---2-2-2-2---2-|-2-2---2-2-2---0-|-----------------|---------33333333|

|-----------------|-----------------|-----------------|-----------------||
|-----------------|-----------------|-----------------|-----------------||
|-----------------|-----------------|-----------------|-----------------||
|-----------------|-----------------|---5-------5-----|---5-------------||
|-4---------4-----|---4-------4-----|-3-3---3-3-3---3-|-3-3---3---------||
|-2---2-2-2-2---2-|-2-2---2-2-2---0-|-----------------|---------33333333||

|-----------------|-----------------|-----------------|-----------------|
|-----------------|-----------------|-----------------|-----------------|
|-----------------|-----------------|-----------------|-----------------|
|-----------------|-----------------|-----------------|-----------------|
|-5-----4-----5---|---4-----5\4-2-4-|-5-----4-----5---|---4-----5\4-2-4-|
|-3-0-0-2-0-0-3-0-|-0-2-0-0-3\2-0-2-|-3-0-0-2-0-0-3-0-|-0-2-0-0-3\2-0-2-|

|-----------------|-----------------|-----------------|-----------------||
|-----------------|-----------------|-----------------|-----------------||
|-----------------|-----------------|-----------------|-----------------||
|-----------------|-----------------|-----------------|-----------------||
|-5-----4-----5---|---4-----5\4-2-4-|-5-----4-----5---|---4-----5\4-2-4-||
|-3-0-0-2-0-0-3-0-|-0-2-0-0-3\2-0-2-|-3-0-0-2-0-0-3-0-|-0-2-0-0-3\2-0-2-||
 chorus
 half time 114 bpm
|-----------------|-----------------|-----------------|-----------------|
|-----------------|-----------------|-----------------|-----------------|
|-----------------|-----------------|-----------------|-----------------|
|-3---------------|-----------------|-3---------------|-----------------|
|-1------------3--|-2---------------|-1------------3--|-2---------------|
|--------------1--|-0-----------3202|--------------1--|-0-----------3202|

|-----------------|-----------------|-----------------||
|-----------------|-----------------|-----------------||
|-----------------|-----------------|-----------------||
|-3---------------|-----------------|-3---------------||
|-1------------3--|-2---------------|-1------------3--||
|--------------1--|-0-----------3202|--------------1--||

|------------------|------------------||
|------------------|------------------||
|------------------|------------------||
|-2---2/32-2---2---|-2---2/32-2---2---||
|-2---2/32-2---2---|-2---2/32-2---2---||
|---00-------00--00|---00-------00--00||
| 1   2    3   4     1   2    3   4
|------------------|------------------||
|------------------|------------------||
|------------------|------------------||
|------------------|------------------||
|-2---2----2---2---|-2---2----2---2---||
|-0---0----0---0---|-0---0----0---0---||

|--------------------|--------------------|-------------------|-------------------|
|--------------------|--------------------|-------------------|-------------------|
|--------------------|--------------------|-------------------|-------------------|
|-10--10/111010--10--|-10--10/111010--10--|-9---9/109-9---9---|-9---9/109-9---9---|
|-8----8/9-8-8---8---|-8----8/9-8-8---8---|-7---7/8-7-7---7---|-7---7/8-7-7---7---|
|---00---------00--00|---00---------00--00|---00--------00--00|---00--------00--00|
  1 .  2   . 3 . 4 .   1 .  2   . 3 . 4 .   1 . 2   . 3 . 4 .   1 . 2   . 3 . 4 .
|--------------------|--------------------|-------------------|-------------------|
|--------------------|--------------------|-------------------|-------------------|
|--------------------|--------------------|-------------------|-------------------|
|-10--10/111010--10--|-10--10/111010--10--|-9---9/109-9---9---|-9---9/109-9---9---|
|-8----8/9-8-8---8---|-8----8/9-8-8---8---|-7---7/8-7-7---7---|-7---7/8-7-7---7---|
|---00---------00--00|---00---------00--00|---00--------00--00|---00--------00--00|
  1 .  2   . 3 . 4 .   1 .  2   . 3 . 4 .   1 . 2   . 3 . 4 .   1 . 2   . 3 . 4 .
 228 bpm
|-----------------|-----------------|-----------------|-----------------|
|-----------------|-----------------|-----------------|-----------------|
|-----------------|-----------------|-----------------|-----------------|
|-3p0-----3p1-----|-6p0-----5p0-----|-3p0-----3p1-----|-6p0-----5p0-----|
|-----------------|-----------------|-----------------|-----------------|
|-----111-----111-|-----111-----111-|-----111-----111-|-----111-----111-|

|-----------------|-----------------|-----------------|-----------------||
|-----------------|-----------------|-----------------|-----------------||
|-----------------|-----------------|-----------------|-----------------||
|-3p0-----3p1-----|-6p0-----5p0-----|-3p0-----3p1-----|-6p0-----5p0-----||
|-----------------|-----------------|-----------------|-----------------||
|-----111-----111-|-----111-----111-|-----111-----111-|-----111-----111-||
 bridge
|-----------------|-----------------|-----------------|-----------------|
|-----------------|-----------------|-----------------|-----------------|
|-----------------|-----------------|-----------------|-----------------|
|-3p0-----3p1-----|-6p0-----5p0-----|-3p0-----3p1-----|-6p0-----5p0-----|
|-----------------|-----------------|-----------------|-----------------|
|-----111-----111-|-----111-----111-|-----111-----111-|-----111-----111-|

|-----------------|-----------------|-----------------|-----------------||
|-----------------|-----------------|-----------------|-----------------||
|-----------------|-----------------|-----------------|-----------------||
|-3p0-----3p1-----|-6p0-----5p0-----|-3p0-----3p1-----|-6p0-----5p0-----||
|-----------------|-----------------|-----------------|-----------------||
|-----111-----111-|-----111-----111-|-----111-----111-|-----111-----111-||

|-----------------|-----------------|-----------------|-----------------|
|-----------------|-----------------|-----------------|-----------------|
|-----------------|-----------------|-----------------|-----------------|
|-10-----10/1110--|-10------10------|-10-----10/1110--|-10------10------|
|-8-------8/9-8---|-8-------8-------|-8-------8/9-8---|-8-------8-------|
|-----000---------|-----000-----000-|-----000---------|-----000-----000-|

|-----------------|-----------------|-----------------|-----------------|
|-----------------|-----------------|-----------------|-----------------|
|-----------------|-----------------|-----------------|-----------------|
|-9-------9/109---|-9-------9-------|-9-------9/109---|-9-------9-------|
|-7-------7/8-7---|-7-------7-------|-7-------7/8-7---|-7-------7-------|
|-----000---------|-----000-----000-|-----000---------|-----000-----000-|

|-----------------|-----------------|-----------------|-----------------|
|-----------------|-----------------|-----------------|-----------------|
|-----------------|-----------------|-----------------|-----------------|
|-10-----10/1110--|-10------10------|-10-----10/1110--|-10------10------|
|-8-------8/9-8---|-8-------8-------|-8-------8/9-8---|-8-------8-------|
|-----000---------|-----000-----000-|-----000---------|-----000-----000-|

|-----------------|-----------------|-----------------|-----------------||
|-----------------|-----------------|-----------------|-----------------||
|-----------------|-----------------|-----------------|-----------------||
|-9-------9/109---|-9-------9-------|-9-------9/109---|-----------------||
|-7-------7/8-7---|-7-------7-------|-7-------7/8-7---|---5-------5-----||
|-----000---------|-----000-----000-|-----000---------|-3-3---3-3-3---3-||
 verse 3
|-----------------|-----------------|-----------------|-----------------|
|-----------------|-----------------|-----------------|-----------------|
|-----------------|-----------------|-----------------|-----------------|
|-----------------|-----------------|---5-------5-----|---5-------------|
|-4---------4-----|---4-------4-----|-3-3---3-3-3---3-|-3-3---3---------|
|-2---2-2-2-2---2-|-2-2---2-2-2---0-|-----------------|---------33333333|

|-----------------|-----------------|-----------------|-----------------|
|-----------------|-----------------|-----------------|-----------------|
|-----------------|-----------------|-----------------|-----------------|
|-----------------|-----------------|---5-------5-----|---5-------------|
|-4---------4-----|---4-------4-----|-3-3---3-3-3---3-|-3-3---3---------|
|-2---2-2-2-2---2-|-2-2---2-2-2---0-|-----------------|---------33333333|

|-----------------||
|-----------------||
|-----------------||
|-----------------||
|-2---------------||
|-0-0-0-0-0-0-0-0-||

|-----------------|-----------------|-----------------|-----------------|
|-----------------|-----------------|-----------------|-----------------|
|-----------------|-----------------|-----------------|-----------------|
|-------------9---|-8---------------|12---------------|11/1211--8-------|
|-2-----------7---|-6---------------|10---------------|-9/109---6-------|
|-0---------------|-----------------|-----------------|-----------------|

|-----------------|-----------------|-----------------|-----------------||
|-----------------|-----------------|-----------------|-----------------||
|-----------------|-----------------|-----------------|-----------------||
|-------------9---|-8---------------|12---------------|11/1211--8-------||
|-------------7---|-6---------------|10---------------|-9/109---6-------||
|-0-0-0-0-0-0-----|-----------------|-----------------|-----------------||
 guitar solo I
|-----------------|-----------------|-----------------|-----------------|
|-----------------|-----------------|-----------------|-----------------|
|-----------------|-----------------|-----------------|-----------------|
|-------------9---|-8---------------|-------------9---|-8---------------|
|-2-----------7---|-6---------------|-2-----------7---|-6---8---7-------|
|-0---------------|-----------------|-0---------------|-----6---5-------|

|-----------------|-----------------|-----------------|-----------------|
|-----------------|-----------------|-----------------|-----------------|
|-----------------|-----------------|-----------------|-----------------|
|-------------9---|-8---------------|-------------9---|-8---------------|
|-2-----------7---|-6---------------|-2-----------7---|-6---8---7-------|
|-0---------------|-----------------|-0---------------|-----6---5-------|

|-----------------|-----------------|-----------------|-----------------|
|-----------------|-----------------|-----------------|-----------------|
|-----------------|-----------------|-----------------|-----------------|
|-------------9---|-8---------------|-------------9---|-8---------------|
|-2-----------7---|-6---------------|-2-----------7---|-6---8---7-------|
|-0---------------|-----------------|-0---------------|-----6---5-------|

|-----------------|-----------------|-----------------|-----------------||
|-----------------|-----------------|-----------------|-----------------||
|-----------------|-----------------|-----------------|-----------------||
|-------------9---|-8---------------|-------------9---|-8---------------||
|-2-----------7---|-6---------------|-2-----------7---|-6---8---7-------||
|-0---------------|-----------------|-0---------------|-----6---5-------||

|-----------------|-----------------|-----------------|-----------------|
|-----------------|-----------------|-----------------|-----------------|
|-----------------|-----------------|-----------------|-----------------|
|-----------------|-----------------|-----------------|-----------------|
|-----------------|-----------------|-----------------|-------------2---|
|-0-0-0---0-0-0---|-0-0-0---0-0-0---|-0-0-0---0-0-0---|-0-0-0---0-0-0---|

|-----------------|-----------------|-----------------|-----------------||
|-----------------|-----------------|-----------------|-----------------||
|-----------------|-----------------|-----------------|-----------------||
|-----------------|-----------------|-----------------|-----------------||
|-----------------|-----------------|-----------------|-------------2---||
|-0-0-0---0-0-0---|-0-0-0---0-0-0---|-0-0-0---0-0-0---|-0-0-0---0-0-0---||

|-----------------|-----------------|-----------------|-----------------||
|-----------------|-----------------|-----------------|-----------------||
|-----------------|-----------------|-----------------|-----------------||
|-----------------|-----------------|-----------------|-----------------||
|-2---------------|-----------------|-----------------|-----------------||
|-0---------------|-----------------|-----------------|-----------------||

|-----------------|-----------------|-----------------|-----------------|
|-----------------|-----------------|-----------------|-----------------|
|-----------------|-----------------|-----------------|-----------------|
|-----------------|-----------------|-----------------|-----------------|
|-6-----5-----3---|---3-----3---5---|-6-----5-----3---|---3-----3---5---|
|-4-0-0-3-0-0-1-0-|-0-1-0-0-1-0-3-0-|-4-0-0-3-0-0-1-0-|-0-1-0-0-1-0-3---|

|-----------------|-----------------||
|-----------------|-----------------||
|-----------------|-----------------||
|-----------------|-----------------||
|-2-----2-----2---|---2-2-2-2-2-2-2-||
|-0-0-0-0-0-0-0-0-|-0-0-0-0-0-0-0-0-||

|-----------------|-----------------|-----------------|-----------------|
|-----------------|-----------------|-----------------|-----------------|
|-----------------|-----------------|-----------------|-----------------|
|-----------------|-----------------|-----------------|-----------------|
|-6-----5-----3---|---3-----3---5---|-6-----5-----3---|---3-----3---5---|
|-4-0-0-3-0-0-1-0-|-0-1-0-0-1-0-3-0-|-4-0-0-3-0-0-1-0-|-0-1-0-0-1-0-3-0-|

|-----------------|-----------------|-----------------|-----------------|
|-----------------|-----------------|-----------------|-----------------|
|-----------------|-----------------|-----------------|-----------------|
|-----------------|-----------------|-----------------|-----------------|
|-6-----5-----3---|---3-----3---5---|-6-----5-----3---|---3-----3---5---|
|-4-0-0-3-0-0-1-0-|-0-1-0-0-1-0-3-0-|-4-0-0-3-0-0-1-0-|-0-1-0-0-1-0-3---|
 verse 4
|-----------------|-----------------|-----------------|-----------------|
|-----------------|-----------------|-----------------|-----------------|
|-----------------|-----------------|-----------------|-----------------|
|-----------------|-----------------|-----------------|-----------------|
|-----------------|-----------9\8---|-6\5-------------|-----------9\8---|
|-0-0-0-0-0-0-0-0-|-0-0-0-0-0-7\6-0-|-4\3-0-0-0-0-0-0-|-0-0-0-0-0-7\6-0-|

|-----------------|-----------------|-----------------|-----------------||
|-----------------|-----------------|-----------------|-----------------||
|-----------------|-----------------|-----------------|-----------------||
|-----------------|-----------------|-----------------|-----------------||
|-6\5-------------|-----------9\8---|-6\5-------------|-----------9\8---||
|-4\3-0-0-0-0-0-0-|-0-0-0-0-0-7\6-0-|-4\3-0-0-0-0-0-0-|-0-0-0-0-0-7\6-0-||
 bridge
|-----------------|-----------------|-----------------|-----------------|
|-----------------|-----------------|-----------------|-----------------|
|-----------------|-----------------|-----------------|-----------------|
|-3p0-----3p1-----|-6p0-----5p0-----|-3p0-----3p1-----|-6p0-----5p0-----|
|-----------------|-----------------|-----------------|-----------------|
|-----111-----111-|-----111-----111-|-----111-----111-|-----111-----111-|

|-----------------|-----------------|-----------------|-----------------||
|-----------------|-----------------|-----------------|-----------------||
|-----------------|-----------------|-----------------|-----------------||
|-3p0-----3p1-----|-6p0-----5p0-----|-3p0-----3p1-----|-6p0-----5p0-----||
|-----------------|-----------------|-----------------|-----------------||
|-----111-----111-|-----111-----111-|-----111-----111-|-----111-----111-||
 guitar solo II
|-----------------|-----------------|-----------------|-----------------|
|-----------------|-----------------|-----------------|-----------------|
|-----------------|-----------------|-----------------|-----------------|
|-3p0-----3p1-----|-6p0-----5p0-----|-3p0-----3p1-----|-6p0-----5p0-----|
|-----------------|-----------------|-----------------|-----------------|
|-----111-----111-|-----111-----111-|-----111-----111-|-----111-----111-|

|-----------------|-----------------|-----------------|-----------------||
|-----------------|-----------------|-----------------|-----------------||
|-----------------|-----------------|-----------------|-----------------||
|-3p0-----3p1-----|-6p0-----5p0-----|-3p0-----3p1-----|-6p0-----5p0-----||
|-----------------|-----------------|-----------------|-----------------||
|-----111-----111-|-----111-----111-|-----111-----111-|-----111-----111-||
 free time                                                         114 bpm
|-----------------|-----------------|-----------------|-----------------||
|-----------------|-----------------|-----------------|-----------------||
|-----------------|-----------------|-----------------|-----------------||
|-----------------|-----------------|-----------------|-----------------||
|-2---------------|(2)--------------|(2)--------------|(2)--------------||
|-0---------------|(0)--------------|(0)--------------|(0)----------3202||

|-----------------|-----------------|-----------------|-----------------|
|-----------------|-----------------|-----------------|-----------------|
|-----------------|-----------------|-----------------|-----------------|
|-3---------------|-3---------------|-3---------------|-3---------------|
|-1---2---2-------|-1---2---2-------|-1---2---2-------|-1---2---2-------|
|---000-000-003202|---000-000-003202|---000-000-003202|---000-000-003202|

|-----------------|-----------------|-----------------|-----------------||
|-----------------|-----------------|-----------------|-----------------||
|-----------------|-----------------|-----------------|-----------------||
|-3---------------|-----------------|-3---------------|-----------------||
|-1---------------|-----------------|-1---------------|-----------------||
|---000-000-000-00|-0-000-000-003202|---000-000-000-00|-0-000-000-003202||
 chorus
|-----------------|-----------------|-----------------|-----------------|
|-----------------|-----------------|-----------------|-----------------|
|-----------------|-----------------|-----------------|-----------------|
|-3---------------|-----------------|-3---------------|-----------------|
|-1------------3--|-2---------------|-1------------3--|-2---------------|
|--------------1--|-0-----------3202|--------------1--|-0-----------3202|

|-----------------|-----------------|-----------------|-----------------|
|-----------------|-----------------|-----------------|-----------------|
|-----------------|-----------------|-----------------|-----------------|
|-3---------------|-----------------|-3---------------|-----------------|
|-1------------3--|-2---------------|-1------------3--|-2---------------|
|--------------1--|-0-----------3202|--------------1--|-0-----------3202|

|-----------------||
|-----------------||
|-----------------||
|-3---------------||
|-1---2---2-------||


Important: The song above is NOT stored on the Chordie server. The original song is hosted at www.xguitar.com. Chordie works as a search engine and provides on-the-fly formatting. Chordie does not index songs against artists'/composers' will. To remove this song please click here.

This song is displayed as text-only. Transposing and tuning is only available for chordpro-songs.

Login - add to songbook

Rating click stars to rate

Layout
Accuracy

SHARE PAGE  




You need to log in to post comments