Guitar Tabs, Chords and Lyrics


Under Siege (Regnum Iraw)   Sepultura



Artist: Sepultura 
Song: Under siege (Regnun Irae)
Album: Arise 
|-----------------|-----------------|-----------------|-----------------|
|-----------------|-----------------|-----------------|-----------------|
|-----------------|-----0-------0---|-----------------|-----0-------0---|
|-----0-------0---|---0---0-------0-|-----0-------0---|---0---0-------0-|
|---5---5-------5-|-4---------4-----|---5---5-------5-|-4---------4-----|
|-7---------7-----|-----------------|-7---------7-----|-----------------|

|-----------------|-----------------|-----------------|-----------------|
|-----------------|-----------------|-----------------|-----------------|
|-----------------|-----0-------0---|-----------------|-----0-------0---|
|-----0-------0---|---0---0-------0-|-----0-------0---|---0---0-------0-|
|---5---5-------5-|-4---------4-----|---5---5-------5-|-4---------4-----|
|-7---------7-----|-----------------|-7---------7-----|-----------------|

|-----------------|-----------------|-----------------|-----------------||
|-----------------|-----------------|-----------------|-----------------||
|-----------------|-----0-------0---|-----------------|-----0-------0---||
|-----0-------0---|---0---0-------0-|-----0-------0---|---0---0-------0-||
|---5---5-------5-|-4---------4-----|---5---5-------5-|-4---------4-----||
|-7---------7-----|-----------------|-7---------7-----|-----------------||

|-----------------|-----------------|-----------------|-----------------|
|-----------------|-----------------|-----------------|-----------------|
|---------------0-|---------------0-|---------------0-|---------------0-|
|-----0-----------|-----0-----------|-----0-----------|-----0-----------|
|---6-----5h6-----|---6-----5h6-----|---6-----5h6-----|---6-----5h6-----|
|-4-----4-----4---|-4-----4-----4---|-4-----4-----4---|-4-----4-----4---|

|-----------------|-----------------|-----------------|-----------------||
|-----------------|-----------------|-----------------|-----------------||
|---------------0-|---------------0-|---------------0-|---------------0-||
|-----0-----------|-----0-----------|-----0-----------|-----0-----------||
|---6-----5h6-----|---6-----5h6-----|---6-----5h6-----|---6-----5h6-----||
|-4-----4-----4---|-4-----4-----4---|-4-----4-----4---|-4-----4-----4---||
|
|-----------------|-----------------|-----------------|-----------------||
|-----------------|-----------------|-----------------|-----------------||
|-----------------|-----------------|-----------------|-----------------||
|-----------------|-----------------|-----------------|-----------------||
|-7\6-----5-----6-|-----5---5---5---|-7\6-----5-----6-|-----5---5---5---||
|-5\4-4-4-4-4-4-4-|-4-444-444-444-44|-5\4-4-4-4-4-4-4-|-4-444-444-444-44||

 144 bpm
|-----------------|-----------------|-----------------|-----------------|
|-----------------|-----------------|-----------------|-----------------|
|-0---------------|(0)--------------|-----------------|-----------------|
|-0---------------|(0)--------------|-----------------|-----------------|
|-6---------------|(6)--------------|-----------------|-----------------|
|-4---------------|(4)--------------|-----------------|-----------------|
|
|-----------------|-----------------|-----------------|-----------------|
|-----------------|-----------------|-----------------|-----------------|
|-----------------|-----------------|-----------------|-----------------|
|-------8---9-----|-------8---9-----|-------8---9-----|-------8---9-----|
|-6-----7---7-----|-6-----7---7-----|-6-----7---7-----|-6-----7---7-----|
|-4-0-0-0---0-0-0-|-4-0-0-0---0-0-0-|-4-0-0-0---0-0-0-|-4-0-0-0---0-0-0-|

|-----------------|-----------------|-----------------|-----------------||
|-----------------|-----------------|-----------------|-----------------||
|-----------------|-----------------|-----------------|-----------------||
|-------8---9-----|-------8---9-----|-------8---9-----|-------8---9-----||
|-6-----7---7-----|-6-----7---7-----|-6-----7---7-----|-6-----7---7-----||
|-4-0-0-0---0-0-0-|-4-0-0-0---0-0-0-|-4-0-0-0---0-0-0-|-4-0-0-0---0-0-0-||

|-----------------|-----------------|-----------------|-----------------||
|-----------------|-----------------|-----------------|-----------------||
|-----------------|-----------------|-----------------|-----------------||
|-----0-----0-----|-----0-----0-----|-----0-----0-----|-----0-----0-----||
|---6-----6-----6-|---6-----6-----6-|---6-----6-----6-|---6-----6-----6-||
|-4-----4-----4---|-4-----4-----4---|-4-----4-----4---|-4-----4-----4---||

 spoken bit
|-----------------|-----------------|-----------------|-----------------|
|-----------------|-----------------|-----------------|-----------------|
|-----------------|-----------------|-----------------|-----------------|
|-6---------------|(6)----6---6---6-|-6---------------|(6)--------------|
|-6---------------|(6)----6---6---6-|-6---------------|(6)--------------|
|-4---------------|(4)----4---4---4-|-4---------------|(4)--------------|

|-----------------|-----------------|-----------------|-----------------||
|-----------------|-----------------|-----------------|-----------------||
|-----------------|-----------------|-----------------|-----------------||
|-6---------------|(6)----6---6---6-|-6---------------|(6)--------------||
|-6---------------|(6)----6---6---6-|-6---------------|(6)--------------||
|-4---------------|(4)----4---4---4-|-4---------------|(4)--------------||

|-----------------|-----------------|-----------------|-----------------|
|-----------------|-----------------|-----------------|-----------------|
|-----------------|-----------------|-----------------|-----------------|
|-----------------|11-9-------------|-----------------|11-9-------------|
|-2---------------|-9-7----10-8-----|-2---------------|-9-7----10-8-----|
|-0---------------|---------8-6-----|-0---------------|---------8-6-----|

|-----------------|-----------------|-----------------|-----------------||
|-----------------|-----------------|-----------------|-----------------||
|-----------------|-----------------|-----------------|-----------------||
|-----------------|11-9-------------|-----------------|11-9-------------||
|-2---------------|-9-7----10-8-----|-2---------------|-9-7----10-8-----||
|-0---------------|---------8-6-----|-0---------------|---------8-6-----||

|-----------------|-----------------|-----------------|-----------------|
|-----------------|-----------------|-----------------|-----------------|
|-----------------|-----------------|-----------------|-----------------|
|-----------8-9---|-----------8-9---|-----------8-9---|-----------8-9---|
|-6-----6---6-7---|-6-----6---6-7---|-6-----6---6-7---|-6-----6---6-7---|
|-4-0-0-4-0-------|-4-0-0-4-0-------|-4-0-0-4-0-------|-4-0-0-4-0-------|

|-----------------|-----------------|-----------------|-----------------||
|-----------------|-----------------|-----------------|-----------------||
|-----------------|-----------------|-----------------|-----------------||
|-----------8-9---|-----------8-9---|-----------8-9---|-----------8-9---||
|-6-----6---6-7---|-6-----6---6-7---|-6-----6---6-7---|-6-----6---6-7---||
|-4-0-0-4-0-------|-4-0-0-4-0-------|-4-0-0-4-0-------|-4-0-0-4-0-------||

 faster 240 bpm
 verse 1
|-----------------|-----------------|-----------------|-----------------|
|-----------------|-----------------|-----------------|-----------------|
|-----------------|-----------------|-----------------|-----------------|
|-----------------|-----------------|-----------------|-----------------|
|-2-----2-----2---|---2-----------4-|-2-----2-----2---|---2-------4---4-|
|-0-0-0-0-0-0-0-0-|-0-0-0-0-3-0-3---|-0-0-0-0-0-0-0-0-|-0-0-0-0-3---2---|

|-----------------|-----------------|-----------------|-----------------|
|-----------------|-----------------|-----------------|-----------------|
|-----------------|-----------------|-----------------|-----------------|
|-----------------|-----------------|-----------------|-----------------|
|-2-----2-----2---|---2-----------4-|-2-----2-----2---|---2-------4---4-|
|-0-0-0-0-0-0-0-0-|-0-0-0-0-3-0-3---|-0-0-0-0-0-0-0-0-|-0-0-0-0-3---2---|

|-----------------|-----------------|-----------------|-----------------|
|-----------------|-----------------|-----------------|-----------------|
|-----------------|-----------------|-----------------|-----------------|
|-----------------|-----------------|-----------------|-----------------|
|-2-----2-----2---|---2-----------4-|-2-----2-----2---|---2-------4---4-|
|-0-0-0-0-0-0-0-0-|-0-0-0-0-3-0-3---|-0-0-0-0-0-0-0-0-|-0-0-0-0-3---2---|

|-----------------|-----------------|-----------------|-----------------||
|-----------------|-----------------|-----------------|-----------------||
|-----------------|-----------------|-----------------|-----------------||
|-----------------|-----------------|-----------------|-----------------||
|-2-----2-----2---|---2-----------4-|-2-----2-----2---|---2-------4---4-||
|-0-0-0-0-0-0-0-0-|-0-0-0-0-3-0-3---|-0-0-0-0-0-0-0-0-|-0-0-0-0-3---2---||

|-----------------|-----------------|-----------------|-----------------|
|-----------------|-----------------|-----------------|-----------------|
|-----------------|-----------------|-----------------|-----------------|
|-------------9---|-8---------------|-------------9---|-8-\-3---3-------|
|-2---------------|-----------------|-2---------------|-----------------|
|-0-----------7---|-6---------------|-0-----------7---|-6-\-1---1-------|
|
|-----------------|-----------------|-----------------|-----------------|
|-----------------|-----------------|-----------------|-----------------|
|-----------------|-----------------|-----------------|-----------------|
|-----------------|-----------------|-----------------|-----------------|
|-2-----------9---|-8---------------|-2-----------9---|-8-------3-------|
|-0-----------7---|-6---------------|-0-----------7---|-6---0---1-------|

|-----------------|-----------------|-----------------|-----------------||
|-----------------|-----------------|-----------------|-----------------||
|-----------------|-----------------|-----------------|-----------------||
|-------------9---|-8---------------|-------------9---|-8-\-3---3-------||
|-2---------------|-----------------|-2---------------|-----------------||
|-0-----------7---|-6---------------|-0-----------7---|-6-\-1---1-------||
|
|-----------------|-----------------|-----------------|-----------------||
|-----------------|-----------------|-----------------|-----------------||
|-----------------|-----------------|-----------------|-----------------||
|-----------------|-----------------|-----------------|-----------------||
|-2-----------9---|-8---------------|-2-----------9---|-8-------3-------||
|-0-----------7---|-6---------------|-0-----------7---|-6---0---1-------||

 spoken bit
 144 bpm
|-----------------|-----------------|-----------------|-----------------|
|-----------------|-----------------|-----------------|-----------------|
|-----------------|-----------------|-----------------|-----------------|
|-6---------------|(6)----6---6---6-|-6---------------|(6)--------------|
|-6---------------|(6)----6---6---6-|-6---------------|(6)--------------|
|-4---------------|(4)----4---4---4-|-4---------------|(4)--------------|

|-----------------|-----------------|-----------------|-----------------||
|-----------------|-----------------|-----------------|-----------------||
|-----------------|-----------------|-----------------|-----------------||
|-6---------------|(6)----6---6---6-|-6-------6-6-6-6-|-6-6-6-6-6-6-6-6-||
|-6---------------|(6)----6---6---6-|-6-------6-6-6-6-|-6-6-6-6-6-6-6-6-||
|-4---------------|(4)----4---4---4-|-4-------4-4-4-4-|-4-4-4-4-4-4-4-4-||

 verse 2
|-----------------|-----------------|-----------------|-----------------|
|-----------------|-----------------|-----------------|-----------------|
|-----------------|-----------------|-----------------|-----------------|
|-----------------|-----------------|-----------------|-----------------|
|-6\5---3---3-3-3-|-3-3-3-3-3-3-3-3-|-6\5---3-------2-|(2)2-2-2-2-2-2-2-|
|-4\3-0-1---1-1-1-|-1-1-1-1-1-1-1-1-|-5\3-0-1-------0-|(0)0-0-0-0-0-0-0-|

|-----------------|-----------------|-----------------|-----------------|
|-----------------|-----------------|-----------------|-----------------|
|-----------------|-----------------|-----------------|-----------------|
|-----------------|-----------------|-----------------|-----------------|
|-6\5---3---3-3-3-|-3-3-3-3-3-3-3-3-|-6\5---3-------2-|(2)2-2-2-2-2-2-2-|
|-4\3-0-1---1-1-1-|-1-1-1-1-1-1-1-1-|-5\3-0-1-------0-|(0)0-0-0-0-0-0-0-|

|-----------------|-----------------|-----------------|-----------------||
|-----------------|-----------------|-----------------|-----------------||
|-----------------|-----------------|-----------------|-----------------||
|-8-------8-9-----|-8-------8-7-----|-8-------8-9-----|-8-------8-7-----||
|-6-------6-6-----|-6-------6-6-----|-6-------6-6-----|-6-------6-6-----||
|-----0000----0000|-----0000----0000|-----0000----0000|-----0000----0-0-||

|-----------------|-----------------|-----------------|-----------------|
|-----------------|-----------------|-----------------|-----------------|
|-----------------|-4/7-7-7-7\6-6---|-3---------------|(3)--------------|
|-2---------------|-----------------|-3---------------|(3)--------------|
|-2---------------|-2/5-5-5-5\4-4-0-|-1---------------|(1)--------------|
|-0---------------|-----------------|-----------------|-----------------|

|-----------------|-----------------|-----------------|-----------------||
|-----------------|-----------------|-----------------|-----------------||
|-----------------|-4/7-7-7-7\6-6---|-3---------------|(3)--------------||
|-2---------------|-----------------|-3---------------|(3)--------------||
|-2---------------|-2/5-5-5-5\4-4-0-|-1---------------|(1)--------------||
|-0---------------|-----------------|-----------------|-----------------||

|-----------------|-----------------|-----------------|-----------------||
|-----------------|-----------------|-----------------|-----------------||
|-----------------|-----------------|-----------------|-----------------||
|-----------------|-----------------|-----------------|-----------------||
|-----------------|-----------------|-----------------|-----------------||
|-0-2-1---0-1-----|-0-2-1---0-1-----|-0-2-1---0-1-----|-0-2-1---0-1-----||

|-----------------|-----------------|-----------------|-----------------||
|-----------------|-----------------|-----------------|-----------------||
|-----------------|-----------------|-----------------|-----------------||
|-----------------|-----------------|-----------------|-----------------||
|-----3-----3-3---|-----3-----3-3---|-----3-----3-3---|-----3-----3-3-3-||
|-0-2-1---0-1-1---|-0-2-1---0-1-1---|-0-2-1---0-1-1---|-0-2-1---0-1-1-1-||

 verse 3
|-----------------|-----------------|-----------------|-----------------|
|-----------------|-----------------|-----------------|-----------------|
|-----------------|-----------------|-3---------------|---3---3-3-3-3-3-|
|-----------------|-4/7-7-7-7\6-6-0-|-3---3-3-3-3-3-3-|-3-2---2-2-2-2-2-|
|-2---------------|-2/5-5-5-5\4-4-0-|-1---1-1-1-1-1-1-|-1-1---1-1-1-1-1-|
|-0---0-0-0-0-0-0-|-----------------|-----------------|-----------------|

|-----------------|-----------------|-----------------|-----------------|
|-----------------|-----------------|-----------------|-----------------|
|-----------------|-----------------|-3---------------|---3---3-3-3-3-3-|
|-----------------|-4/7-7-7-7\6-6-0-|-3---3-3-3-3-3-3-|-3-2---2-2-2-2-2-|
|-2---------------|-2/5-5-5-5\4-4-0-|-1---1-1-1-1-1-1-|-1-1---1-1-1-1-1-|
|-0---0-0-0-0-0-0-|-----------------|-----------------|-----------------|

|-----------------|-----------------|-----------------|-----------------||
|-----------------|-----------------|-----------------|-----------------||
|-----------------|-----------------|-----------------|-----------------||
|-----------------|-----------------|-----------------|-----------------||
|-----3-----3-3---|-----3-----3-3---|-----3-----3-3---|-----3-----3-3-3-||
|-0-2-1---0-1-1---|-0-2-1---0-1-1---|-0-2-1---0-1-1---|-0-2-1---0-1-1-1-||

|-----------------|-----------------|-----------------|-----------------||
|-----------------|-----------------|-----------------|-----------------||
|-----------------|-----------------|-----------------|-----------------||
|-----------------|-----------------|-----------------|-----------------||
|-----------------|-----------------|-----------------|-----------------||
|-0-2-1---0-1-----|-0-2-1---0-1-----|-0-2-1---0-1-----|-0-2-1---0-1-----||
 faster 240 bpm

 verse 4
|-----------------|-----------------|-----------------|-----------------|
|-----------------|-----------------|-----------------|-----------------|
|-----------------|-----------------|-----------------|-----------------|
|-----------------|-----------------|-----------------|-----------------|
|-2-----2-----2---|---2-----------4-|-2-----2-----2---|---2-------4---4-|
|-0-0-0-0-0-0-0-0-|-0-0-0-0-3-0-3---|-0-0-0-0-0-0-0-0-|-0-0-0-0-3---2---|

|-----------------|-----------------|-----------------|-----------------|
|-----------------|-----------------|-----------------|-----------------|
|-----------------|-----------------|-----------------|-----------------|
|-----------------|-----------------|-----------------|-----------------|
|-2-----2-----2---|---2-----------4-|-2-----2-----2---|---2-------4---4-|
|-0-0-0-0-0-0-0-0-|-0-0-0-0-3-0-3---|-0-0-0-0-0-0-0-0-|-0-0-0-0-3---2---|

|-----------------|-----------------|-----------------|-----------------|
|-----------------|-----------------|-----------------|-----------------|
|-----------------|-----------------|-----------------|-----------------|
|-----------------|-----------------|-----------------|-----------------|
|-2-----2-----2---|---2-----------4-|-2-----2-----2---|---2-------4---4-|
|-0-0-0-0-0-0-0-0-|-0-0-0-0-3-0-3---|-0-0-0-0-0-0-0-0-|-0-0-0-0-3---2---|

|-----------------|-----------------|-----------------|-----------------||
|-----------------|-----------------|-----------------|-----------------||
|-----------------|-----------------|-----------------|-----------------||
|-----------------|-----------------|-----------------|-----------------||
|-2-----2-----2---|---2-----------4-|-2-----2-----2---|---2-------4---4-||
|-0-0-0-0-0-0-0-0-|-0-0-0-0-3-0-3---|-0-0-0-0-0-0-0-0-|-0-0-0-0-3---2---||

 slower 168 bpm
|-----------------||
|-----------------||
|-----------------||
|-----------------||
|-----------------||
|-0---------------||
|
|-----------------||
|-----------------||
|-----------------||
|-----------------||
|-----------------||
|-00000-00000-000-||

|-----------------|-----------------|-----------------|-----------------||
|-----------------|-----------------|-----------------|-----------------||
|-----------------|-----------------|-----------------|-----------------||
|-----------------|-----------------|-----------------|-----------------||
|-----------------|-----------------|-----------------|-----------------||
|-00000-00000-000-|-00000-00000-000-|-00000-00000-000-|-00000-00000-000-||

|-----------------|-----------------|-----------------|-----------------|
|-----------------|-----------------|-----------------|-----------------|
|-8---------------|(8)--------------|11---------------|12---------------|
|-----------------|-----------------|-----------------|-----------------|
|-6---------------|(6)--------------|-9---------------|10---------------|
|-----------------|-----------------|-----------------|-----------------|
|
|-----------------|-----------------|-----------------|-----------------|
|-----------------|-----------------|-----------------|-----------------|
|-----------------|-----------------|-----------------|-----------------|
|-----------------|-----------------|-----------------|-----------------|
|-----------------|-----------------|-----------------|-----------------|
|-00000-00000-000-|-00000-00000-000-|-00000-00000-000-|-00000-00000-000-|

|-----------------|-----------------|-----------------|-----------------|
|-----------------|-----------------|-----------------|-----------------|
|-8---------------|(8)--------------|11---------------|-3---------------|
|-----------------|-----------------|-----------------|-----------------|
|-6---------------|(6)--------------|-9---------------|-1---------------|
|-----------------|-----------------|-----------------|-----------------|
|
|-----------------|-----------------|-----------------|-----------------|
|-----------------|-----------------|-----------------|-----------------|
|-----------------|-----------------|-----------------|-----------------|
|-----------------|-----------------|-----------------|-----------------|
|-----------------|-----------------|-----------------|-----------------|
|-00000-00000-000-|-00000-00000-000-|-00000-00000-000-|-00000-00000-000-|

|-----------------|-----------------|-----------------|-----------------||
|-----------------|-----------------|-----------------|-----------------||
|(3)--------------|(3)--------------|(3)--------------|(3)--------------||
|-----------------|-----------------|-----------------|-----------------||
|(1)--------------|(1)--------------|(1)--------------|(1)--------------||
|-----------------|-----------------|-----------------|-----------------||
|
|-----------------|-----------------|-----------------|-----------------||
|-----------------|-----------------|-----------------|-----------------||
|-----------------|-----------------|-----------------|-----------------||
|-----------------|-----------------|-----------------|-----------------||
|-----------------|-----------------|-----------------|-----------------||
|-00000-00000-000-|-00000-00000-000-|-00000-00000-000-|-00000-00000-000-||

 guitar solo
|-----------------|-----------------|-----------------|-----------------|
|-----------------|-----------------|-----------------|-----------------|
|-----------------|-----------------|-----------------|-----------------|
|-----------------|-----------------|-----------------|-----------------|
|-----------------|-----------------|-----------------|-----------------|
|-00000-00000-000-|-00000-00000-000-|-00000-00000-000-|-00000-00000-000-|

|-----------------|-----------------|-----------------|-----------------|
|-----------------|-----------------|-----------------|-----------------|
|-----------------|-----------------|-----------------|-----------------|
|-----------------|-----------------|-----------------|-----------------|
|-----------------|-----------------|-----------------|-----------------|
|-00000-00000-000-|-00000-00000-000-|-00000-00000-000-|-00000-00000-000-|

|-----------------|-----------------|-----------------|-----------------||
|-----------------|-----------------|-----------------|-----------------||
|-----------------|-----------------|-----------------|-----------------||
|-----------------|-----------------|-----------------|-----------------||
|-----------------|-----------------|-----------------|-----------------||
|-00000-00000-000-|-00000-00000-000-|-00000-00000-000-|-00000-00000-000-||

|-----------------|-----------------|-----------------|-----------------|
|-----------------|-----------------|-----------------|-----------------|
|-----------------|-----------------|-----------------|-----------------|
|-------------3---|-------------3-3-|-------------3---|-------------3-3-|
|-2-2-2-2-3-2-1---|-2-2-2-2-3-2-1-1-|-2-2-2-2-3-2-1---|-2-2-2-2-3-2-1-1-|
|-0-0-0-0-1-0-----|-0-0-0-0-1-0-----|-0-0-0-0-1-0-----|-0-0-0-0-1-0-----|

|-----------------|-----------------|-----------------|-----------------|
|-----------------|-----------------|-----------------|-----------------|
|-----------------|-----------------|-----------------|-----------------|
|-------------3---|-------------3-3-|-------------3---|-------------3-3-|
|-2-2-2-2-3-2-1---|-2-2-2-2-3-2-1-1-|-2-2-2-2-3-2-1---|-2-2-2-2-3-2-1-1-|
|-0-0-0-0-1-0-----|-0-0-0-0-1-0-----|-0-0-0-0-1-0-----|-0-0-0-0-1-0-----|

|-----------------|------------------|-----------------|-----------------|
|-----------------|-------------11h12|-----------------|-----------------|
|---9-----9---9-10|---9-----9h10-----|---9-----9---9-10|---9-----9h10----|
|-----8-----8-----|-----8------------|-----8-----8-----|-----8-----------|
|-------7---------|-------7----------|-------7---------|-------7-----7h9-|
|-----------------|------------------|-----------------|-----------------|
|
|-----------------|------------------|-----------------|-----------------|
|-----------------|------------------|-----------------|-----------------|
|-----------------|------------------|-----------------|-----------------|
|-----------------|------------------|-----------------|-----------------|
|-2-----------2-3-|-2----------------|-2-----------2-3-|-2---------------|
|-0-----------0-1-|-0----------------|-0-----------0-1-|-0---------------|

|-----------------|-----------------|-----------------||
|-----------------|-----------------|-----------------||
|-----------------|-----------------|-----------------||
|-----------------|-----------------|-----------------||
|-3-2-------------|-3-2-------------|-3-3-3-2---------||


Important: The song above is NOT stored on the Chordie server. The original song is hosted at www.xguitar.com. Chordie works as a search engine and provides on-the-fly formatting. Chordie does not index songs against artists'/composers' will. To remove this song please click here.

This song is displayed as text-only. Transposing and tuning is only available for chordpro-songs.

Login - add to songbook

Rating click stars to rate

Layout
Accuracy

SHARE PAGE  




You need to log in to post comments