Guitar Tabs, Chords and Lyrics


Hungry   Sepultura



Artist: Sepultura
Song: Hungry
Album: Beneath the remains

e|------------------|
B|------------------|
G|--4-0-3-0-3-4-3~--|
D|------------------|
A|------------------|
E|------------------|

e|----------------------------------------------------------|
B|----------------------------------------------------------|
G|----------------------------------------------------------|
D|----------------------------------------------------------|
A|--------------6-------------3-------------6---------------|
E|--0-0---0-0-0-4--0-0--0-0-0-1--0-0--0-0-0-4--0-0-0-0-0-0--|

e|---------------------------------------------------------------------------
B|---------------------------------------------------------------------------
G|---------------------------------------------------------------------------
D|---------------------------------------------------------------------------
A|--6-------------6-----3-----6-------------6-----7-----6-------------6------
E|--4-4-4-4-4-4-4-4-4-4-1-1-1-4-4-4-4-4-4-4-4-4-4-5-5-5-4-4-4-4-4-4-4-4-4-4--

e|---------------------|
B|---------------------|
G|---------------------|
D|---------------------|
A|--3------------------|


Important: The song above is NOT stored on the Chordie server. The original song is hosted at www.xguitar.com. Chordie works as a search engine and provides on-the-fly formatting. Chordie does not index songs against artists'/composers' will. To remove this song please click here.

This song is displayed as text-only. Transposing and tuning is only available for chordpro-songs.

Login - add to songbook

Rating click stars to rate

Layout
Accuracy

SHARE PAGE  




You need to log in to post comments