Guitar Tabs, Chords and Lyrics


Lobotomy   Sepultura



Artist: Sepultura
Song: lobotomy
Album: Beneath the remains

e|-----------------------------------|
B|-----------------------------------|
G|-----------------------------------|
D|-----------------------------------|
A|--6-5-3-5-3-2-3-2-6-5-3-5-3-2-3----|
E|--4-3-1-3-1-0-1-0-4-3-1-3-1-0-1----| -> I don't know for sure

e|---------------------------|
B|---------------------------|
G|---------------------------|
D|---------------------------|
A|---------------------------|
E|--0-0-000-0-0-000-000-000--|

e|----------------------------------|
B|----------------------------------|
G|----------------------------------|
D|----------------------------------|
A|------578-----578-----578-875-----|
E|--0-0-----0-0-----0-0---------87--|

e|-----------------------|
B|-----------------------|
G|-----------------------|
D|-----------------------|
A|---------3----------2--|
E|--444313-1--444-3-3-0--|

e|------------------------------------------|
B|------------------------------------------|
G|------------------------------------------|
D|------------------------------------------|
A|--------------------------------33332222--| 2nd time only: harmonic on 2
E|--111...-0011444...- 111...-0011----------|

e|---------------------------------------|
B|---------------------------------------|
G|---------------------------------------|
D|---------------------------------10-9--|
A|-------7788-----8877-----7788-----8-7--|
E|--66...----77...----66...----77...-----|

e|---------------------------|
B|---------------------------|
G|---------------------------|
D|------------4\3------------|
A|--2----3----2\1----6\5-----|
E|--0-00-1-00-----00-4\3-00--|

e|--------------------------------------------------------------|
B|--------------------------------------------------------------|
G|--------------------------------------------------------------|
D|---------------------------------------------------------9-8--|
A|----6---7---9---10---9---7---9----6---7---9---10---9---7------|
E|--0---0---0---0----0---0---0----0---0---0---0----0---0--------|

e|-------------------|
B|-------------------|
G|-------------------|
D|-------------------|
A|----------6-5-9-8--|


Important: The song above is NOT stored on the Chordie server. The original song is hosted at www.xguitar.com. Chordie works as a search engine and provides on-the-fly formatting. Chordie does not index songs against artists'/composers' will. To remove this song please click here.

This song is displayed as text-only. Transposing and tuning is only available for chordpro-songs.

Login - add to songbook

Rating click stars to rate

Layout
Accuracy

SHARE PAGE  




You need to log in to post comments