Guitar Tabs, Chords and Lyrics


Primitive Future   Sepultura



Artist: Sepultura
Song: Primitive future
Album: Beneath the remains

e|-----------|
B|-----------|
G|-----------|
D|-----------|
A|--2-3-2-6--|
E|--0-1-0-4--|

e|-----------------------------------------|
B|-----------------------------------------|
G|-----------------------------------------|
D|-----------------------------------------|
A|-----------------6--------------2-2-2-2--| -> This isn't correct,
E|--00-11-00-11-00-4--00-11-00-11-0-0-0-0--|    so listen to the CD

e|-------------------------------------------|
B|-------------------------------------------|
G|-------------------------------------------|
D|-------------------------------------------|
A|--2----3----8---------2----3----6----------|
E|--0-00-1-00-6--000-00-0-00-1-00-4--000-00--|

e|---------------------------------|
B|---------------------------------|
G|---------------------------------|
D|---------------------------------|
A|----------4^3-----7^6---------6--|
E|--0-0-0-0-----0-0-----0-0-0-0-4--|

e|-------------------|
B|-------------------|
G|-------------------|
D|-------------------|
A|--2-------------6--|
E|--0-0-0-0-0-...-4--|

e|-------------------|
B|-------------------|
G|-------------------|
D|-------------------|
A|-------------------|


Important: The song above is NOT stored on the Chordie server. The original song is hosted at www.xguitar.com. Chordie works as a search engine and provides on-the-fly formatting. Chordie does not index songs against artists'/composers' will. To remove this song please click here.

This song is displayed as text-only. Transposing and tuning is only available for chordpro-songs.

Login - add to songbook

Rating click stars to rate

Layout
Accuracy

SHARE PAGE  




You need to log in to post comments