Guitar Tabs, Chords and Lyrics


Amen   Sepultura



Artist: Sepultura
Song: Amen
Album: Chaos A.D
intro               Riff1                       Ending of riff1
|---------------------|----------------------|----------------------
|---------------------|----------------------|----------------------
|------------13-------|----------------------|----------------------
|---------------------|----------------------|----------------------
|------------11-------|---2--------7--6---2--|---6-6-6-6-6-6-6-6-6--
|--0---------0--------|---0---/7----------0--|---6-6-6-6-6-6-6-6-6--
(forgive me father)                                     (Iknow i've sinned...)
|--16--16--16--16--16--16--16--16---16--16--16-|--15--15--15--15--15--15--15--15-
|----------------------------------------------|---------------------------------
|--13--13--13--13--13--13--13--13---13--13--13-|--12--12--12--12--12--12--12--12-
|----------------------------------------------|---------------------------------
|--11--11--11--11--11--11--11--11---11--11--11-|--10--10--10--10--10--10--10--10-
|----------------------------------------------|---------------------------------
(i'm the chosen one.)
|--15--15--15--15--15--15------------15--15-------|
|-----------------------------0--0---0---0--------|
|--12--12--12--12--12--12-----0--0---0---0--------|
|-------------------------------------------------|
|--10--10--10--10--10--10-------------------------|
|-------------------------------------------------|
(terror raids the land...)
|-----------------------------------|
|-----------------------------------|
|-----------------------------------|
|-----------------------------------|
|--2-2-2-2-2-2-2-2-2---5-5-5---6-6--|
|--0-0-0-0-0-0-0-0-0---3-3-3---4-4--|
   . . . . . . . . .pm
|-------------------------------------------|--------------------|
|-------------------------------------------|--------------------|
|-------------------------------------------|--------------------|
|-------------------------------------------|--5-5--5-5---6-6--6-|
|--2-------6--------8-----2-----6------8----|--------------------|
|--0-0-0---4--0-0---6--0--0-0-0-4-0-0--6--0-|--3-3--3-3---4-4--4-|
     . .      . .           . .   . .
 Guitar1                                                guitar 2
|-------------------------------------------|--12---------------|
|-------------------------------------------|--11------11---11--|
|-------------------------------------------|----------13---13--|
|-------------------------------------------|-------------------|
|-2--------6--------8----6--5--6--5--6------|-------------------|
|-0--0--0--4--0--0--6----4--3--4--3--4---0--|-------------------|
     .  .
 Guitar 1                                         guitar 2
|-------------------|--------------------|---------------------------|
|-------------------|--------------------|---------------------------|
|-------------------|--------------------|-----------------------4---|
|-------------------|---------------4----|------------------3/2----3-|
|-7-------1/0--2-1--|----------1/0----3--|--7------1/0--2/1----------|
|-0---2/0-----------|--0---2/0-----------|--0--2/0-------------------|
 (where goin insane.)

|---------------------------|----------|
|-----------------------12--|----------|
|--------12-------15--------|------12--|
|---------------------------|----------|
|---------------------------|----------|
|--0------------------------|---0------|

|---------------------|-----------------------|
|---------------------|-----------------------|
|---------------------|-----------------------|
|-----7---9-----7---9-|-----------------------|
|---------------------|----5---7----5---7-----|
|--0---------0--------|--0--------0--------0--|

|----------------------------------|
|----------------------------------|
|----13"---------------------------|
|----------------10/9--------9-----|
|----11"----------8/7--------7-----|
|------------0-0-------0--0--------|
                       .  .
 
|--------------------------------------------------------|-----------------|
|--------------------------------------------------------|-----------------|
|--------------------------------------------------------|-----------------|
|--13-------13/16-------17------17/19------17------16----|-----------------|
|--11"------11/14"------15"-----15/17"-----15"-----14"---|--2-2--2-2--2-2--|
|--------------------------------------------------------|--0-0--0-0--0-0--|

picking
|----------------------|--------------|
|---9----21----9----21-|---8----20----|
|----------------------|--------------|
|---6----18----6----18-|---5----17----|
|----------------------|--------------|
|----------------------|--------------|


Important: The song above is NOT stored on the Chordie server. The original song is hosted at www.xguitar.com. Chordie works as a search engine and provides on-the-fly formatting. Chordie does not index songs against artists/composers will. To remove this song please click here.

This song is displayed as text-only. Transposing and tuning is only available for chordpro-songs.

Login - add to songbook

Rating click stars to rate

Layout
Accuracy

SHARE PAGE  




You need to log in to post comments