Guitar Tabs, Chords and Lyrics


Propaganda   Sepultura




[two detailed versions]




			   P R O P A G A N D A
				(Sepultura)
		      Music & Lyrics by Max Cavalera.


Notes:  Sorry, but i dont know the solo for this song, if you have it or
if you see something wrong in the tab please email me.
___________________________________________________________________________
    Intro.1
							    8 Times
d:||--12h13p12h13p12h13p12h13p12h13-12h13p12h13p12h13p12h13p12h13--||
A:||---------------------------------------------------------------||
F:||*-------------------------------------------------------------*||
C:||*-------------------------------------------------------------*||
G:||---------------------------------------------------------------||
D:||---------------------------------------------------------------||
d:-------------------------------|-------------------------------|
A:-------------------------------|-------------------------------|
F:-------------------------------|-------------------------------|
C:--2----------------------------|-----------------------5--4--7-|
G:--2----------------------------|-----------------------5--4--7-|
D:--0----------------------------|-----------------------3--2--5-|
      Let It Sound

    Intro.2
d:||--------------------------------------------------------------|
A:||--------------------------------------------------------------|
F:||*-------------------------------------------------------------|
C:||*-------------------------------------------------------------|
G:||--------------------------------------------------------------|
D:||---0--0--0--0--0--0--0--0--0--0--0--0--0--0--0--0--0--0-------|
       P.m.................................................

						 4 Times
d:------------------------------------------------------||
A:------------------------------------------------------||
F:-----------------------------------------------------*||
C:--------------------------------------5----4----7----*||
G:--------------------------------------5----4----7-----||
D:--0--0--0--0--0--0--0--0--0--0--0--0--3----2----5-----||
    P.m...............................

d:-------------------------------|-------------------------------|
A:-------------------------------|-------------------------------|
F:-------------------------------|-------------------------------|
C:--2----------------------------|-------------------------------|
G:--2----------------------------|-------------------------------|
D:--0----------------------------|-------------------------------|
      Mute The Strings

   
   
    w/Lyrics.1
d:||--------------------------------------------------------------|
A:||--------------------------------------------------------------|
F:||*-------------------------------------------------------------|
C:||*-------------------------------------------------------------|
G:||--------------------------------------------------------------|
D:||---0--0--0--0--0--0--0--0--0--0--0--0--0--0--0--0--0--0-------|
       P.m.................................................

						 4 Times
d:------------------------------------------------------||
A:------------------------------------------------------||
F:-----------------------------------------------------*||
C:--------------------------------------5----4----7----*||
G:--------------------------------------5----4----7-----||
D:--0--0--0--0--0--0--0--0--0--0--0--0--3----2----5-----||
    P.m...............................

  Pre Chorus
d:---------------------------------|---------------------------------|
A:---------------------------------|---------------------------------|
F:-----3--------------3-----3------|-----3-------------3-------------|
C:--2--3---5--4/5--5--3-----3------|--2--3--5--4/5--5--3-----5--4--7-|
G:--2--1---5--4/5--5--1-----1------|--2--1--5--4/5--5--1-----5--4--7-|
D:--0------3--2/3--3---------------|--0-----3--2/3--3--------3--2--5-|

   
    w/Lyrics.2
d:||--------------------------------------------------------------|
A:||--------------------------------------------------------------|
F:||*-------------------------------------------------------------|
C:||*-------------------------------------------------------------|
G:||--------------------------------------------------------------|
D:||---0--0--0--0--0--0--0--0--0--0--0--0--0--0--0--0--0--0-------|
       P.m.................................................

						 4 Times
d:------------------------------------------------------||
A:------------------------------------------------------||
F:-----------------------------------------------------*||
C:--------------------------------------5----4----7----*||
G:--------------------------------------5----4----7-----||
D:--0--0--0--0--0--0--0--0--0--0--0--0--3----2----5-----||
    P.m...............................

  Chorus
d:||--------------------------|-------------------------|
A:||--------------------------|-------------------------|
F:||*-------------------------|-------------------------|
C:||*--2--------4/5--4--3--3--|--2--------4/5--4--3--3--|
G:||---2--------2/3--2--1--1--|--2--------2/3--2--1--1--|
D:||---0--0--0----------------|--0--0--0----------------|
    P.m....                   P.m....

			   ÚÄÄÄÄÄÄÄÄÄÄÄÄÄÄÄÄÄÄÄÄÄÄÄÄÄÄÄÄÄÄÄÄ¿               
			    1.
d:-------------------------|--------------------------------||
A:-------------------------|--------------------------------||
F:-------------------------|-------------------------------*||
C:--2--------4/5--4--3--3--|-------------------------------*||
G:--2--------2/3--2--1--1--|--------------------------------||
D:--0--0--0----------------|--0-0-0-0-0--0-0-0-0-0-0--6~~~~-||
    P.m....                   P.m...................  

 ÚÄÄÄÄÄÄÄÄÄÄÄÄÄÄÄÄÄÄÄÄÄÄÄÄÄÄÄÄÄÄÄÄ 
  2.
d:--------------------------------|
A:--------------------------------|
F:--------------------------------|
C:--------------------------------|
G:--------------------------------|
D:--0-0-0-0-0--0-0-0-0-0-0--6////-|
    P.m...................  Sl..
  
  Pre Chorus
d:--------------------------------|---------------------------------|
A:--------------------------------|---------------------------------|
F:-----3--------------3-----------|-----3-------------3-------------|
C:--2--3---5--4/5--5--3-----------|--2--3--5--4/5--5--3-----5--4--7-|
G:--2--1---5--4/5--5--1-----------|--2--1--5--4/5--5--1-----5--4--7-|
D:--0------3--2/3--3--------------|--0-----3--2/3--3--------3--2--5-|
    
    
    w/Lyrics.3
d:||--------------------------------------------------------------|
A:||--------------------------------------------------------------|
F:||*-------------------------------------------------------------|
C:||*-------------------------------------------------------------|
G:||--------------------------------------------------------------|
D:||---0--0--0--0--0--0--0--0--0--0--0--0--0--0--0--0--0--0-------|
       P.m.................................................

                                                 
						 4 Times
d:------------------------------------------------------||
A:------------------------------------------------------||
F:-----------------------------------------------------*||
C:--------------------------------------5----4----7----*||
G:--------------------------------------5----4----7-----||
D:--0--0--0--0--0--0--0--0--0--0--0--0--3----2----5-----||
    P.m...............................
			    

  Chorus
d:||--------------------------|-------------------------|
A:||--------------------------|-------------------------|
F:||*-------------------------|-------------------------|
C:||*--2--------4/5--4--3--3--|--2--------4/5--4--3--3--|
G:||---2--------2/3--2--1--1--|--2--------2/3--2--1--1--|
D:||---0--0--0----------------|--0--0--0----------------|
    P.m....                   P.m....

			   ÚÄÄÄÄÄÄÄÄÄÄÄÄÄÄÄÄÄÄÄÄÄÄÄÄÄÄÄÄÄÄÄÄ¿               
			    1.
d:-------------------------|--------------------------------||
A:-------------------------|--------------------------------||
F:-------------------------|-------------------------------*||
C:--2--------4/5--4--3--3--|-------------------------------*||
G:--2--------2/3--2--1--1--|--------------------------------||
D:--0--0--0----------------|--0-0-0-0-0--0-0-0-0-0-0--6~~~~-||
    P.m....                   P.m...................  

 ÚÄÄÄÄÄÄÄÄÄÄÄÄÄÄÄ               
  2.
d:-----------------||-------------------------------------------|
A:-----------------||-------------------------------------------|
F:-----------------||*------------------------------------------|
C:-----------------||*------------------------------------------|
G:-----------------||-7/6--------------10/9----9/8----8/7--7/6--|
D:--1--1--1--1--1--||-5/4--0-0-0-0-0-0-8/-7--0-7/6--0-6/5--5/4--|
    P.m..........
d:--------------------------------||
A:--------------------------------||
F:-------------------------------*||
C:-------------------------------*||
G:--------------------------------||
D:-0-0-0-0-0-0-0-2-1-0-2-1-0-2-1--||
   P.m..........................

Gtr. Solo
w/Rhy Fig.2 (2 Times)
w/Rhy Fig.3 (2 Times)

  Rhy Fig.3                         End Rhy Fig.3
d:-----------------------|-----------------------|
A:-----------------------|-----------------------|
F:-----------------------|-----------------------|
C:--3------2-------------|--3------2-------------|
G:--1------0------2------|--1------0------2------|
D:----------------0------|----------------0------| 

		     
		     
    Bridge.           4 Times   w/Intro.1 Rhy          4 Times
d:||-------------------------|||------------------------------||
A:||-------------------------|||------------------------------||
F:||*-----------------------*|||*----------------------------*||
C:||*-----------------------*|||*----------------------------*||
G:||-------------------------|||--2--2-2---2-2--2-2--2--2-2---||
D:||-0--0--0--0--0--0-0-0-0--|||--0--0-0---0-0--0-0--0--0-0---||
				     P.m...................
		
		end w/Intro.1 Rhy                         4 times
d:-------------------------------||------------------------------||
A:-------------------------------||------------------------------||
F:-------------------------------||*----------------------------*||
C:--2----------------------------||*----------------------------*||
G:--2----------------------------||--2--2-2---2-2--2-2--2--2-2---||
D:--0----------------------------||--0--0-0---0-0--0-0--0--0-0---||
					P.m...................
Gtrs. Out
    
    Bass Gtr.
F:||------------------------------||
C:||*----------------------------*||
G:||*----------------------------*||
D:||--0--0-0---0-0--0-0--0--0-0---||

Gtrs.In
    
    Outro                                                        3 Times
d:||--------------------------------------------------------------------||
A:||--------------------------------------------------------------------||
F:||*------------------------------------------------------------------*||
C:||*-3---------------------------------2------------------------------*||
G:||--1---------------------------------0-------------------------------||
D:||------0--0--0---0000-0-0-0-0-0-0-0-----0--0--0---0000-0-0-0-0-0-0-0-||
	  P.m..........................     .............................

d:----------|
A:----------|
F:----------|
C:--3-------|
G:--1---2---|
D:------0---|
Hi metal diehard guys, this is an incomplete transcription of Sepultura's 

	"PROPAGANDA"

from their last album CHAOS AD for Roadrunner Records

Music & Lyrics by Max Cavalera.

(partially) Transcribed by Christian Ponzoni < so94@gamma0.lica.unimo.it >

NOTES: SOLO AND SOLO RHYTHM NOT INCLUDED!

!!!!!!!!!!! IF YOU WRITE IT DOWN PLEASE E-MAIL IT TO ME !!!!!!!!!!!!!
!!!!!!!!!!!                THANKS!                      !!!!!!!!!!!!! 
       



	TABLATURE EXPLANATION
TABLATURE: A six line staff representing the six strings of a Guitar
	   from the highest to the lowest sounding string.
e:-------------------------------|-------------------------------|
B:-------------------------------|-------------------------------|
G:-------------------------------|-------------------------------|
D:-------------------------------|-------------------------------|
A:-------------------------------|-------------------------------|
E:-------------------------------|-------------------------------|
	DEFINITIONS OF SPECIALS

Bh :	Half Bend. Strike the note and bend up a half step.
Bf :	Full Bend. Strike the note and bend up a whole step.
Br :	Bend and release. Bend up then bend back to original note.
pB :	Pre bend. Bend up the note then strike it.
pBr:	Pre bend and release. Same as above then bend down to original
uB :	Unison bend. Strike 2 notes simultaneously then bend the lower one up 
	             up to the higher.
V  :	Vibrato. That's it!
wV :	Wide or exhaggerated vibrato. Again, that's it!
Sn :	Normal slide. Strike first note,slide up or down,don't strike 2nd!
Ss :	Slide. Same as above but 2nd note is struck!
S  :	Slide. Strike the note then slide up or down some frets (indefinite).
pS :	Pick Slide. Rub the pick down a string ( scratchy, huh? )
HO :	Hammer on. Strike the 1st note (lower) then sound without picking
		   the higher note fretting with another left-hand finger.
PO :	Pull off. Exactly the opposite of a hammer on!
T  :	Trill. Alternate rapidly the 2 notes indicated in tab.
TA :	Tapping. Hammer a note with a right hand finger (or pick) then pull
	         off to the note fretted by left hand finger.
PM :	Palm muting. Mute the note with right hand near the bridge.
		     (+ get that Metallica-like CHUMM CHUMM!) 



TABLATURE :
TUNING : TUNE DOWN A WHOLE STEP :  d:
				   A:
				   F:
				   C:
				   G:
				   D:


RIFF 1

e:-12-13-12-13-12-13-12-13-12-13-12-13-12-13-12-13-12-13-12-13-|
B:-------------------------------------------------------------|
G:-------------------------------------------------------------|
D:-------------------------------------------------------------|
A:-------------------------------------------------------------|
E:-------------------------------------------------------------|
      HO PO HO PO HO PO HO PO HO    HO PO HO PO HO PO HO PO HO      

RHYTHM 1

e:-------------------------------|-------------------------------|
B:-------------------------------|-------------------------------|
G:-------------------------------|-------------------------------|
D:--2----------------------------|-----------------------5--4--5-|
A:--2----------------------------|-----------------------5--4--5-|
E:--0----------------------------|-----------------------3--2--3-|
        LET IT SOUND!

RHYTHM 2

e:-------------------------------------------------------------|
B:-------------------------------------------------------------|
G:-------------------------------------------------------------|
D:-------------------------------------------------------------|
A:-------------------------------------------------------------|
E:--0--0--0--0--0--0--0--0--0--0--0--0--0--0--0--0--0--0-------|
    PM .................................................

e:-------------------------------------------------------------|
B:-------------------------------------------------------------|
G:-------------------------------------------------------------|
D:--------------------------------------5-----4-----5----------|
A:--------------------------------------5-----4-----5----------|
E:--0--0--0--0--0--0--0--0--0--0--0--0--3-----2-----3----------|
    PM ...............................

RHYTHM 3

e:-------------------------------|-------------------------------|
B:-------------------------------|-------------------------------|
G:-------------------------------|-------------------------------|
D:--2----------------------------|-------------------------------|
A:--2----------------------------|-------------------------------|
E:--0----------------------------|-------------------------------|
        MUTE THE STRINGS

RHYTHM 4 ( PRE CHORUS )

e:-------------------------------|-------------------------------|
B:-------------------------------|-------------------------------|
G:-----3------------3------------|-----3-----------3-------------|
D:--2--3---5--4--5--3------------|--2--3--5--4--5--3-----5--4--5-|
A:--2--1---5--4--5--1------------|--2--1--5--4--5--1-----5--4--5-|
E:--0------3--2--3---------------|--0-----3--2--3--------3--2--3-|

RHYTHM 5 ( CHORUS )

e:-------------------------------|-------------------------------|
B:-------------------------------|-------------------------------|
G:-------------------------------|-------------------------------|
D:--2----------------------------|--2----------------------------|
A:--2----------------------------|--2----------------------------|
E:--0---0-----7-8-7--6-----------|--0---0--0--7-8-7---6----------|
        PM    *                         PM..  *
              STRIKE 7 THEN 
              BEND UP TO 8 AND  
              BEND DOWN BACK TO 7

                                                             end RHYTHM 5
e:-------------------------------|-------------------------------|
B:-------------------------------|-------------------------------|
G:-------------------------------|-------------------------------|
D:--2----------------------------|-------------------------------|
A:--2----------------------------|-------------------------------|
E:--0---0--0--7-8-7---6----------|--0-0-0-0-0--0-0-0-0-0-0--6----|
        PM..  *                     PM....................  wV!

SONG STRUCTURE:

	RIFF 1
	RIFF 1
	RIFF 1
	RIFF 1
	RIFF 1		ENTER DRUMS
	RIFF 1
	RIFF 1
	RIFF 1
	RHYTHM 1
	RHYTHM 2
	RHYTHM 2
	RHYTHM 2
	RHYTHM 2
	RHYTHM 3	STOP HERE ALTOGETHER!
	RHYTHM 2	- Why don't you get a .......
	RHYTHM 2	-
	RHYTHM 2	-
	RHYTHM 2	-
	RHYTHM 4
	RHYTHM 2	- You think you have the rights........
	RHYTHM 2	-
	RHYTHM 2	-
	RHYTHM 2	-
	RHYTHM 5	- Don't, Don't believe what you see!
	RHYTHM 5	- Don't, Don't believe what you read!
	RHYTHM 4	- NOOOO!
	RHYTHM 2	- I know my ways.....
	RHYTHM 2	-
	RHYTHM 2	-
	RHYTHM 2	-
	RHYTHM 5	- Don't, Don't believe .....
	RHYTHM 5	-
	SOLO RHYTHM
	another RHYTHM
	another RHYTHM


Well now I stop here  'cos I'm lazy.

My CD player is waiting for some NAILBOMB tracks!


	FINAL NOTES:
PLEASE IF YOU COMPLETE OR REWRITE THIS SONG SEND ME YOUR VERSION.
PLEASE IF YOU GOT SOME CARCASS' OR SEPULTURA' SONGS TRANSCRIBED SEND ME SOME!
PLEASE IF YOU JUST WANT TO CHAT ABOUT METAL SEND ME SOME E-MAIL.
my E-MAIL address is:

Christian Ponzoni 



Important: The song above is NOT stored on the Chordie server. The original song is hosted at www.xguitar.com. Chordie works as a search engine and provides on-the-fly formatting. Chordie does not index songs against artists/composers will. To remove this song please click here.

This song is displayed as text-only. Transposing and tuning is only available for chordpro-songs.

Login - add to songbook

Rating click stars to rate

Layout
Accuracy

SHARE PAGE  




You need to log in to post comments