Guitar Tabs, Chords and Lyrics


Empire of the Damned   Sepultura



standard tuning

h  = hammer-on
 p  = pull-off
 b  = bend
 r  = bend release
 /  = slide up/down
 = natural harmonic
[5] = artifical harmonic
 ~  = vibrato
 tr = trill


  Intro
E|---------|-----------||-------------------------|-------------------------|---
B|---------|-----------||-------------------------|-------------------------|---
G|---------|-----------||-------------------------|-------------------------|---
D|---------|-5---------||-------------------------|-6\-5--------------------|-4\
A|-2---6---|-3---5--6--||-------------------------|-4\-3--------------------|-2\
E|-0---4---|-----3--4--||-0--0--0--0--0--0--0--0--|-------0--0--0--0--0--0--|---

E|-----------------------|-------------------------||-------------------------|-
B|-----------------------|-------------------------||-------------------------|-
G|-----------------------|-------------------------||-------------------------|-
D|--3--------------------|-------------------------||-------------------------|-
A|--1--------------------|-4\-3--------------------||-6\-5--------------------|-
E|-----0--0--0--0--0--0--|-2\-1--0--0--0--0--0--0--||-4\-3--0--0--0--0--0--0--|-

E|-------------------------|-------------------------|-------------------------
B|-------------------------|-------------------------|-------------------------
G|-------------------------|-------------------------|-------------------------
D|-6\-5--------------------|-4\-3--------------------|-------------------------
A|-4\-3--------------------|-2\-1--------------------|-4\-3--------------------
E|-------0--0--0--0--0--0--|-------0--0--0--0--0--0--|-2\-1--0--0--0--0--0--0--


    Verse
E-||-------------------------------|-------------------------------|-----------
B-||-------------------------------|-------------------------------|-----------
G-||-------------------------------|-------------------------------|-----------
D-||-------------------------------|-6\-5--------------------------|-4\-3------
A-||-6\-5--------------------------|-4\-3--------------------------|-2\-1------
E-||-4\-3--0-0-0-0-0-0-0-0-0-0-0-0-|-------0-0-0-0-0-0-0-0-0-0-0-0-|-------0-0-


                                                         Chorus
E|---------------------|-------------------------------||-----------------------
B|---------------------|-------------------------------||-----------------------
G|---------------------|-------------------------------||-----------------------
D|---------------------|-------------------------------||-----------------------
A|---------------------|-4\-3--------------------------||-6-6-6-6-6-6-6-6-6-6-6-
E|-0-0-0-0-0-0-0-0-0-0-|-2\-1--0-0-0-0-0-0-0-0-0-0-0-0-||-----------------------

E|-----------|---------------------------------|-------------------------------
B|-----------|---------------------------------|-------------------------------
G|-----------|---------------------------------|-------------------------------
D|-----------|---------------------------------|-------------------------------
A|-6-6-6-6-6-|-6-6-6-6-6-6-6-6-6-6-6-6-6-6-6-6-|-5-5-5-5-5-5-5-5-5-5-5-5-5-5-5-
E|-----------|---------------------------------|-------------------------------


                                          Slower
E|---|--------------------------||------||---------|--------|---------|---------
B|---|--------------------------||------||---------|--------|---------|---------
G|---|--------------------------||------||---------|--------|---------|---------
D|---|-----------------------5--||-3-x\-||------4--|-5------|------4--|-5--3----
A|-5-|-5-5-5-5-5-5-5-5-5--6-----||-1-x\-||-2----2--|-3------|-2----2--|-3--1----
E|---|--------------------------||------||-0-------|--------|-0-------|---------


                                                   Faster
E|--|---------|--------|---------|---------------||-------------------------|---
B|--|---------|--------|---------|---------------||-------------------------|---
G|--|---------|--------|---------|---------------||-------------------------|---
D|--|------4--|-5------|------4--|-5--3--------4-||-------------------------|---
A|--|-2----2--|-3------|-2----2--|-3--1--5-4-5-2-||-------------------------|---
E|--|-0-------|--------|-0-------|-------3-2-3---||-0--0--0--0--0--0--2--3--|-0-


                                                                     Slower
E|-----------------------||--------------------|-------------------||---------|-
B|-----------------------||--------------------|-------------------||---------|-
G|-----------------------||--------------------|-------------------||---------|-
D|-----------------------||--------------------|----------3----3---||---------|-
A|--------3-----------2--||----------------2---|----------1----1---||-2---4---|-
E|--0--3-----0--0--3-----||-0--0--0--0--0--0---|-0--0--0-----------||-0---2---|-


                              Solo (Faster)
E|-------||---------|-------||-------------------------|----------------------|-
B|-------||---------|-------||-------------------------|----------------------|-
G|-------||---------|-------||-------------------------|----------------------|-
D|-------||-9-------|-------||-------------------------|-------------------5--|-
A|-3-----||-7---9---|-8-----||-0-0-0-0-0-0-1-0-0-0-0-0-|-3-0-0-0-0-0-1-0-0-3--|-
E|-1-----||-----7---|-6-----||-------------------------|----------------------|-

E|-------------------------|----------------------|-------------------------|---
B|-------------------------|----------------------|-------------------------|---
G|-------------------------|----------------------|-------------------------|---
D|-------------------------|-------------------6--|-------------------------|---
A|-0-0-0-0-0-0-1-0-0-0-0-0-|-3-0-0-0-0-0-1-0-0-4--|-1-1-1-1-1-1-2-1-1-1-1-1-|-4-
E|-------------------------|----------------------|-------------------------|---

E|--------------------|-------------------------|-------------------------||---
B|--------------------|-------------------------|-------------------------||---
G|--------------------|-------------------------|-------------------------||---
D|-----------------7--|-------------------------|-------------------------||---
A|-1-1-1-1-1-2-1-1-5--|-1-1-1-1-1-1-2-1-1-1-1-1-|-4-1-1-1-1-1-2-1-1-1-1-1-||-6-
E|--------------------|-------------------------|-------------------------||-4-


               Fast
E|-----------||------------------------|------------------------|---------------
B|-----------||------------------------|------------------------|---------------
G|-----------||------------------------|------------------------|---------------
D|-----------||------------------------|------------------------|---------------
A|--6--6--7--||------------------------|------------------------|-2-2-2-2-2-2-2-
E|--4--4--5--||-2-2-2-2-2-2-2-2-2-2-3--|-2-2-2-2-2-2-2-2-2-2-0--|---------------


                                       Garbage   Ending (Then Orchestra)
E|----------|------------------------||--------||----------------*|-
B|----------|------------------------||--------||----------------*|-
G|----------|------------------------||--------||----------------*|-
D|----------|------------------------||--------||----------------*|-
A|-2-2-2-3--|-2-2-2-2-2-2-2-2-2-2-0--||-4------||-2-2--2-2--2-2--*|-


Important: The song above is NOT stored on the Chordie server. The original song is hosted at www.xguitar.com. Chordie works as a search engine and provides on-the-fly formatting. Chordie does not index songs against artists'/composers' will. To remove this song please click here.

This song is displayed as text-only. Transposing and tuning is only available for chordpro-songs.

Login - add to songbook

Rating click stars to rate

Layout
Accuracy

SHARE PAGE  




You need to log in to post comments