Guitar Tabs, Chords and Lyrics


Morbid Visions   Sepultura



h  = hammer-on
 p  = pull-off
 b  = bend
 r  = bend release
 /  = slide up/down
 = natural harmonic
[5] = artifical harmonic
 ~  = vibrato
 tr = trill

E|-----------------------||-------------||-----------------------------|--------
B|-----------------------||-------------||-----------------------------|--------
G|-----------------------||-------------||-----------------------------|--------
D|-----------------------||-------------||-----------------------------|--------
A|---------3----------3--||-3--3--3--3--||-----------------------------|--------
E|-0-0-0-0-1--0-0-0-0-1--||-1--1--1--1--||-0-0-0-0-0-0-0-0-6p4-0-0-0-0-|-10p9-0-


                                                                     Verse
E|--------------||-----------------------------|-------------------||-----------
B|--------------||-----------------------------|-------------------||-----------
G|--------------||-----------------------------|-------------------||-----------
D|--------------||-----------------------------|-------------8--8--||-----------
A|-----------8--||-----------------7h8---------|-5h6---------6--6--||-----------
E|-0-0-0-6p4-6--||-0-0-0-0-0-0-0-0-----0-0-0-0-|-----0-0-0-0-------||-7-7-7-7-7-


                                                              Not sure about this
E|-----------------------|----------------------------------||-----------------
B|-----------------------|----------------------------------||-----------------
G|-----------------------|----------------------------------||-----------------
D|-----------------------|----------------------------------||-10--9------9--8-
A|-----------------------|-/8-8-8-8-8-8-8-8-8-8-8-8-8-8-8-8-||--8--7--10--7--6-
E|-7-7-7-7-7-7-7-7-7-7-7-|----------------------------------||---------8-------

E|-----||---------------------------------|----------------------------||-------
B|-----||---------------------------------|----------------------------||-------
G|-----||---------------------------------|----------------------------||-------
D|-----||---------------------------------|----------------------------||-------
A|--9--||-----------------6-6-6-6-6-6-6-6-|-8-8-8-8-8-8-8-8-6-6-5-5----||-------
E|--7--||-5-5-5-5-5-5-5-5-----------------|-------------------------6--||-4-4-4-


                                                            Chorus
E|---------------------------|----------------------------||-----------------||-
B|---------------------------|----------------------------||-----------------||-
G|---------------------------|----------------------------||-----------------||-
D|---------------------------|----------------------------||-4---------3-----||-
A|-----------5-5-5-5-5-5-5-5-|-7-7-7-7-7-7-7-7-5-5-4-4----||-2---5\-4--1-----||-
E|-4-4-4-4-4-----------------|-------------------------5--||-----3\-2--------||-


  Slower
E|-------------------------||-------------------------||------------------------
B|-------------------------||-------------------------||------------------------
G|-------------------------||-------------------------||------------------------
D|-------------------------||-------------------------||------------------------
A|-------------6--7--6-----||-------------6--7--6tr7--||------------------------
E|-0--0--6--7-----------7--||-0--0--6--7--------------||-0--0--6--0--0--7--0--0-

E|--|-------------------||-
B|--|-------------------||-
G|--|-------------------||-
D|--|-9--------8----8---||-
A|--|-7--------6----6---||-


Important: The song above is NOT stored on the Chordie server. The original song is hosted at www.xguitar.com. Chordie works as a search engine and provides on-the-fly formatting. Chordie does not index songs against artists'/composers' will. To remove this song please click here.

This song is displayed as text-only. Transposing and tuning is only available for chordpro-songs.

Login - add to songbook

Rating click stars to rate

Layout
Accuracy

SHARE PAGE  




You need to log in to post comments