Chordie logo

Sepulnation   Sepultura



Tab    : Sepulnation 
Artist : Sepultura 

drop b
   hp     hp 
|--------------| 
|--------------| 
|--------------| 
|-010-0-141-01-| 
|--------------| 
|--------------| 
|---------|---------|---------|-------------| 
|---------|---------|---------|-------------| 
|---------|---------|---------|-------------| 
|-4-4-1-5-|-4-4-4-4-|-4-4-1-5-|-4-4-1xx-1xx-| x2 
|-4-4-1-5-|-4-4-4-4-|-4-4-1-5-|-4-4-1xx-1xx-| 
|-4-4-1-5-|-4-4-4-4-|-4-4-1-5-|-4-4-1xx-1xx-| 
|---------|---------|---------|---------| 
|---------|---------|---------|---------| 
|---------|---------|---------|---------| 
|-4-4-4-4-|-4-4-4-4-|-4-4-4-4-|-1-1-4-4-| 1x litle soft 1x heavier
|-4-4-4-4-|-4-4-4-4-|-4-4-4-4-|-1-1-4-4-| 
|-4-4-4-4-|-4-4-4-4-|-4-4-4-4-|-1-1-4-4-| 

figure out da solo for yourself 

|---------| 
|---------| 
|---------| 
|-4-4-1-5-| this is played under the solo 
|-4-4-1-5-| 
|-4-4-1-5-| 

|--------| 
|--------| 
|--------| 
|--------| 
|--------| 
|-01-010-| 

This is messed up I know

|-----------| 
|-----------| 
|-----------| 
|-011-01000-| 
|-011-01000-| 
|-011-01000-| 
  hp    hp 
|-----------| 
|-----------| 
|-----------| 
|-010-0-141-| 
|-----------| 
|-----------| 

|---------| 
|---------| 
|---------| 
|-4-4-4-4-| 
|-4-4-4-4-| 
|-4-4-4-4-| 
\---pm--/ 




Important: The song above is NOT stored on the Chordie server. The original song is hosted at www.xguitar.com. Chordie works as a search engine and provides on-the-fly formatting. Chordie does not index songs against artists/composers will. To remove this song please click here.

This song is displayed as text-only. Transposing and tuning is only available for chordpro-songs.

Login - add to songbook

Rating click stars to rate

Layout
Accuracy

SHARE PAGE  

You need to log in to post comments