Guitar Tabs, Chords and Lyrics


Mongoloid   Sepultura



Song: Mongoloid
Artist: Sepultura
Album: Revolusongs EP (2nd disc of Roorback or single released
in Brazil and Japan)
Tuning: D G C F A D (low to high)
by Christoph Thiele
ddevil01@gmx.de

tr= tremolo picking

Riff 1

|-------------------------------------|
|-------------------------------------|
|-------------------------------------|
|-4-44-444-7-77-777------2-22-4444-44-|
|-2-22-222-5-55-555-5-55-0-00-2222-22-|
|-------------------3-33--------------|

Riff 2

|--------------------|
|--------------------|
|--------------------|
|-7-7-----4-4-444444-|
|-5-5-5-5-2-2-222222-|
|-----3-3------------|

Fill 1

|-------------|
|-------------|
|-------------|
|-------------|  listen to the song, how often Andreas plays this E5 chords
|-22222222...-|
|-00000000...-|
  |--p.m.-|


Solo w/wahwah  (I hope you can start with this first, because I haven’t tabbed
out the rest of the solo. But that are only some weird sounds on the 1st string,
I think).

|--------------------------------------------------------17---14--10--------
|-----------19---------------vib---vib---vib----------------------------vib-
|-16---14--------16---14---12~~~-14~~~-16~~~---16---14----------------12~~~-
|---------------------------------------------------------------------------
|---------------------------------------------------------------------------
|---------------------------------------------------------------------------


----------------------------------------------------------------      |
---vib---vib-----vib/tr----------------------vib/tr-----vib/tr--      |
-14~~~-16~~~---17~~~~~~~~~~~~~~~~~~~~~~~~~-17~~~~~~~--15~~~-----      |
----------------------------------------------------------------      |
----------------------------------------------------------------      |
---------------------------------------------------------------- ...  |

Riff 1b

|------------------------------------|
|------------------------------------|
|------------------------------------|
|-44444444-77777777-----222-44444444-|
|-22222222-55555555-555-000-22222222-|
|-------------------333--------------|
  |--------------p.m.---------------|

Riff 1c

|---------------------|
|---------------------|
|---------------------|
|-4tr-7tr-----2tr-4tr-|
|-2tr-5tr-5tr-0tr-2tr-|
|---------3tr---------|


Fill 2

|-----|
|-----|
|-----|
|-4-4-|
|-2-2-|
|-----|


Order:
Riff 1 w/wahwah x2 1 gtr.
Riff 1          x4 2 gtrs.
Riff 2          x4 2 gtrs.
Fill
Riff 1          x2 2 gtrs.
Riff 2          x4 2 gtrs.
Fill
Riff 1          x2 2 gtrs.
Solo         (gtr. 2 plays Riff 1 x2;  Riff 2 x4 under Solo)
Fill
Riff 1b         x4 2 gtrs.
Riff 1c         x3 2 gtrs.
Fill 2          x1 2 gtrs.


Important: The song above is NOT stored on the Chordie server. The original song is hosted at www.xguitar.com. Chordie works as a search engine and provides on-the-fly formatting. Chordie does not index songs against artists'/composers' will. To remove this song please click here.

This song is displayed as text-only. Transposing and tuning is only available for chordpro-songs.

Login - add to songbook

Rating click stars to rate

Layout
Accuracy

SHARE PAGE  




You need to log in to post comments