Guitar Tabs, Chords and Lyrics


Born Stubborn   Sepultura



Sepultura (Roots)

BORN STUBBORN - tabbed by Vogi 
Tuned down 2 1/2 steps

e|--------1--|
B|-----------|
G|-----------|
D|--3-----3--|
A|-----------|
E|-----------|

e|-----------------------|
B|-----------------------|
G|-----------------------|
D|-----------------------|
A|-----------------------|
E|--0-0-0-0---0-0---0----|

e|-------------------------------------------------|
B|-------------------------------------------------|
G|--9-9-9-9-9-9-9-9-13-13-13-13-14-14-14-14-(16\)--|
D|-------------------------------------------------|
A|--7-7-7-7-7-7-7-7-11-11-11-11-12-12-12-12-(14\)--|
E|-------------------------------------------------|

e|------------------------------------------|
B|------------------------------------------|
G|--9-9-9-9-9-9-9-9-13-13-13-13-10-10-10-10-|
D|------------------------------------------|
A|--7-7-7-7-7-7-7-7-11-11-11-11-8--8--8--8--|
E|------------------------------------------|

e|-----------------------------|
B|-----------------------------|
G|-----------------------------|
D|-----------------------------|
A|-----------------3--5--6--5--|
E|--0-0-0-0---0-0--1--3--4--3--|

e|-------------------|
B|-------------------|
G|-------------------|
D|--2--2----3--2--3--|
A|--2--2----1--2--1--|
E|--0--0-------0-----|

e|-----------------|
B|-----------------|
G|-----------------|
D|-----------------|
A|--3-5-6-5-3-2----|
E|--1-3-4-3-1-0----|

Tabbed by Vogi (vogi@geocities.com)



Important: The song above is NOT stored on the Chordie server. The original song is hosted at www.xguitar.com. Chordie works as a search engine and provides on-the-fly formatting. Chordie does not index songs against artists'/composers' will. To remove this song please click here.

This song is displayed as text-only. Transposing and tuning is only available for chordpro-songs.

Login - add to songbook

Rating click stars to rate

Layout
Accuracy

SHARE PAGE  




You need to log in to post comments