Guitar Tabs, Chords and Lyrics


Breed Apart   Sepultura



Sepultura (Roots)

BREED APART - tabbed by Vogi 
Tuned down 2 1/2 steps

e|--------------------|
B|--------------------|
G|--------------------|
D|--------------------|
A|--2-2-2----2-2-2-2--|
E|--0-0-0----0-0-0-0--|

e|----------------------------------|
B|------------------------------8---|
G|------------------------------10b-|
D|----------------------------------|
A|----------------------------------|
E|--000-0-0-0-0-000-0-0-0-0-0-0-----|

e|-------------------------|
B|-------------------------|
G|-------------------------|
D|-------------------------|
A|-------------------------|
E|--6^0-6^0-6^0-6^0-6^8^6--|

e|----------------|
B|----------------|
G|----------------|
D|----------------|
A|--2-2--2-2------|
E|--0-0--0-0------|

e|----------|
B|----------|
G|----------|
D|----------|
A|--2--2--2-|
E|--0--0--0-|

e|-----------------|
B|-----------------|
G|-----------------|
D|-----------------|
A|--6\3--6\3--2----|
E|--4\1--4\1--0----|
     \    /
    slow slides

Tabbed by Vogi (vogi@geocities.com)


Important: The song above is NOT stored on the Chordie server. The original song is hosted at www.xguitar.com. Chordie works as a search engine and provides on-the-fly formatting. Chordie does not index songs against artists'/composers' will. To remove this song please click here.

This song is displayed as text-only. Transposing and tuning is only available for chordpro-songs.

Login - add to songbook

Rating click stars to rate

Layout
Accuracy

SHARE PAGE  




You need to log in to post comments