Guitar Tabs, Chords and Lyrics


Dictatorshit   Sepultura



Sepultura (Roots)

DICTATORSHIT - tabbed by Vogi 
Tuned down 2 1/2 steps

e|--------------------------|
B|--------------------------|
G|--------------------------|
D|--------------------------|
A|--3-3--3-3--3-3--3-3------|
E|--1-1--1-1--1-1--1-1------|

e|----------|
B|----------|
G|----------|
D|----------|
A|--8--5-2--|
E|--6--3-0--|

e|--------------------------|
B|--------------------------|
G|--------------------------|
D|--------------------------|
A|--2-5--2-5--2-5--2-2-2-2--|
E|--0-3--0-3--0-3--0-0-0-0--|

e|----------------------|
B|----------------------|
G|----------------------|
D|----------------------|
A|----8----8----2----2--|
E|--0-6--0-6--0-0--0-0--|

Tabbed by Vogi (vogi@geocities.com)



Important: The song above is NOT stored on the Chordie server. The original song is hosted at www.xguitar.com. Chordie works as a search engine and provides on-the-fly formatting. Chordie does not index songs against artists'/composers' will. To remove this song please click here.

This song is displayed as text-only. Transposing and tuning is only available for chordpro-songs.

Login - add to songbook

Rating click stars to rate

Layout
Accuracy

SHARE PAGE  




You need to log in to post comments