eToCache5 = ""; ?> Itsari by Sepultura - guitar chords, guitar tabs and lyrics - chordie

Itsari

Sepultura

 2-B3-G4-D5-A6-D
                               Chords:
 DE/DB7add4D7
                      e   2    4    7    8
 B3557G2445
                      D   0    0    0    0
A X/0 X/0 0 X/0
D X/0 X/0 0 X/0
The song's chords alternate between picking all six strings on the
first three beats to only the top four on the last three beats of
each bar. This is why some chords alternate between open A and
D and a closed A and D. See below for clarification.
'Itsari' is a tribal song, and is accompanied by a chant. Try
thinking this way when playing the strummed parts of it.
The most challenging part of the song - and the real reason to
attempt it - is the solo. If the chording doesn't interest you,
jump to that. Note that where a 't' is written above a note, it
should be played as an eighth note triplet (three notes over one
beat).
Verse:
6/8
 DE/DE/DD
||2---2-2-2-2-2---X-4-4-4-|4---X-2-2-2-2---2-2-2-2-||
||3---3-3-3-3-3---X-5-5-5-|5---X-3-3-3-3---3-3-3-3-||
||2---2-2-2-2-2---X-4-4-4-|4---X-2-2-2-2---2-2-2-2-||
||0-----------0-----------|0-----------0-----------||
||0-----------------------|0-----------------------||
||0-----------------------|0-----------------------||

 123456
    ]    ]    ]    ]    ]    ]  Chorus:
||2---2-2-2-4-4---4-4-4-X-|7---7-7-7-8-8---8-8-8-8-||
||3---3-3-3---5---5-5-5-X-|5---5-5-5---7---7-7-7-7-||
||2---2-2-2---4---4-4-4-X-|4---4-4-4---5---5-5-5-5-||
||0-----------0-----------|0-----------0-----------||
||0-----------------------|0-----------------------||
||0-----------------------|0-----------------------||

 DE/DB7add4D7
                                    Solo:
||------------5-p-4-----------------------5-------|
||--------7-----------------------7---------------|
||4-h-5-------------------------------------------|
||------------------------------------------------|
||------------------------------------------------|
||------------------------------------------------|

1 e + a 2 e + a 3 e + a 4 e + a 5 e + a 6 e + a
t t t
|4h-5p-4-----------------------------------------|
|--------7---------------------------------------|
|----------------5-------4h5p4-------------------|
|------------------------------------------------|
|------------------------------------------------|
|------------------------------------------------|

t t t
|------------2-p-0-------0-------2-------0h-2p-0-|
|--------3-----------3---------------------------|
|1-h-2-------------------------------------------|
|------------------------------------------------|
|------------------------------------------------|
|------------------------------------------------|
|------------------------------------------------|
|3---------------3------3---------------3--------|
|------------------------------------------------|
|------------------------------------------------|
|------------------------------------------------|
|------------------------------------------------|
|------------2-p-0-------4---------------2h4p2p0-|
|--------3-----------3--------------------------h|
|1-h-2-------------------------------------------|
|------------------------------------------------|
|------------------------------------------------|
|------------------------------------------------|
|--------4-------5-------4h5p4---2---------------|
|3-----------------------------------------------|
|------------------------------------------------|
|------------------------------------------------|
|------------------------------------------------|
|------------------------------------------------|
|7---5---4-------5---4---------------------------|
|------------7-----------7---5---3-------1-------|
|------------------------------------------------|
|------------------------------------------------|
|------------------------------------------------|
|------------------------------------------------|
|------------------------------------------------|
|0h1p0-----------1-------0h1p0-------------------|
|------------------------------------------------|
|------------------------------------------------|
|------------------------------------------------|
|------------------------------------------------|
||--------------2-p-0-------------------2-p-0---------||
||----------3-----------3-----------3------------3----||
||o-1-h-2-------------------1-h-2--------------------o||
||o--------------------------------------------------o||
||----------------------------------------------------||
||----------------------------------------------------||

repeat many times








A B B7add4 D D7 E/D G
variations - click chord images
Transpose chords:
Tuning:
Cool service:
View: Size:
A  A  A
Rating:
Layout:
  • Currently 2.4/5 Stars.
  • 1
  • 2
  • 3
  • 4
  • 5
 
Accuracy:
  • Currently 4.8/5 Stars.
  • 1
  • 2
  • 3
  • 4
  • 5
 
click stars to rate
Chordie recommends:
Get acoustic guitar lessons and electric guitar lessons at JamPlay.com
Songbook:
Login to add this song to your songbook
Support the artist
Preview/buy this song
MSN Music
Why this non-profit ad?

 
login to add comments/video/corrections