Guitar Tabs, Chords and Lyrics


Ratamahatta   Sepultura



Artist: Sepultura
Song: Ratamahatta
Album: Roots

Tuned down 2 1/2 steps
e|-----------------|
B|-----------------|
G|-----------------|
D|--2--3-2--5-2-5--|
A|-----------------|
E|--0--1-0--3-0-3--|

e|-----------------|
B|-----------------|
G|-----------------|
D|-----------------|
A|--2--3-2--5-2-5--|
E|--0--1-0--3-0-3--|

e|-----------|
B|-----------|
G|-----------|
D|-----------|
A|--2-2-2----|


Important: The song above is NOT stored on the Chordie server. The original song is hosted at www.xguitar.com. Chordie works as a search engine and provides on-the-fly formatting. Chordie does not index songs against artists'/composers' will. To remove this song please click here.

This song is displayed as text-only. Transposing and tuning is only available for chordpro-songs.

Login - add to songbook

Rating click stars to rate

Layout
Accuracy

SHARE PAGE  




You need to log in to post comments