Guitar Tabs, Chords and Lyrics


Spit   Sepultura



Sepultura (Roots)

SPIT - tabbed by Vogi 
Tuned down 2 1/2 steps

E|--------------------------------------------------|
B|--------------------------------------------------|
G|----some bends and harmonics:-12------------------|
D|--------------------------------------------------|
A|--------------------------------------------------|
E|--------------------------------------------------|

E|-----------------------------------|
B|-----------------------------------|
G|-----------------------------------|
D|--------------------------4-4-3-3--|
A|--3-----3-----3-----3-----2-2-1-1--|
E|--1-0-0-1-0-0-1-0-0-1-0-0----------|

E|----------------------------------|
B|----------------------------------|
G|----------------------------------|
D|----------------------------------|
A|--3-----3-----3-----3-----3---3---|
E|--1-0-0-1-0-0-1-0-0-1-0-0-1-0-1-0-|
E|-------------------------------------------------|
B|-------------------------------------------------|
G|-------------------------------------------------|
D|-------------------------------------------------|
A|--5-5-5-2--2--4-4-4-2--2--5-5-5/8-8-8-8-8-8-8-8--|
E|--3-3-3-0--0--2-2-2-0--0--3-3-3/6-6-6-6-6-6-6-6--|
E|-------------------------------|
B|-------------------------------|
G|-------------------------------|
D|-------------------------------|
A|--2-2--2-2--2-2--2-2--4-4-4-4--|
E|--0-0--0-0--0-0--0-0--2-2-2-2--|

E|---------------------------|
B|---------------------------|
G|---------------------------|
D|---------------------------|
A|---------------------------|
E|--0^1--0--0^1--0--2-2-2-2--|
Tabbed by Vogi (vogi@geocities.com)


Important: The song above is NOT stored on the Chordie server. The original song is hosted at www.xguitar.com. Chordie works as a search engine and provides on-the-fly formatting. Chordie does not index songs against artists'/composers' will. To remove this song please click here.

This song is displayed as text-only. Transposing and tuning is only available for chordpro-songs.

Login - add to songbook

Rating click stars to rate

Layout
Accuracy

SHARE PAGE  




You need to log in to post comments