Guitar Tabs, Chords and Lyrics


Straighthate   Sepultura



Sepultura (Roots)

STRAIGHTHATE - tabbed by Vogi 
Tuned down 2 1/2 steps

e|--------------------|
B|--------------------|
G|--------------------|
D|--------------------|
A|--2--2-2--2-2--2-2--|
E|--0--0-0--0-0--0-0--|

e|--------------------|
B|--------------------|
G|--------------------|
D|--------------------|
A|--------------------|
E|---/-x-\-x-/-x-\-x--|   This are natural harmonics (aproximately above 5th fret)

e|------------------------------|
B|------------------------------|
G|------------------------------|
D|------------------------------|
A|--3-2-------5--5-6-5-2-----2--|
E|--1-0--0-0--3--3-4-3-0-0-0-0--|
e|---------------------------------------------------------|
B|--bends, slides and wah-effects around this accord:--10--|
G|-----------------------------------------------------12--|
D|---------------------------------------------------------|
A|---------------------------------------------------------|
E|---------------------------------------------------------|

e|---------------------------------|
B|---------------------------------|
G|---------------------------------|
D|-6\3-3-6\3-3-6\3-3---------------|
A|-4\1-1-4\1-1-4\1-1--2-2--2-2--2--|
E|--------------------0-0--0-0--0--|

e|---------------------------------------|
B|---------------------------------------|
G|---------------------------------------|
A|---------------------/8-8-8-8-8-8-8-8--|
E|--1^0-0-1^0-0-1^0-0--/6-6-6-6-6-6-6-6--|

e|----------------------|
B|----------------------|
G|----------------------|
D|----------------------|
A|--8-2--6-2--3-2--6-2--|
E|--6-0--4-0--1-0--4-0--|

e|----------------------|
B|----------------------|
G|----------------------|
D|----------------------|
A|----------------------|
E|--6^0--4^0--1^0--4^0--|

e|----------------|
B|----------------|
G|----------------|
D|----------------|
A|--3--3--3--2----|
E|--1--1--1--0----|
    .  .  .

Tabbed by Vogi (vogi@geocities.com)



Important: The song above is NOT stored on the Chordie server. The original song is hosted at www.xguitar.com. Chordie works as a search engine and provides on-the-fly formatting. Chordie does not index songs against artists'/composers' will. To remove this song please click here.

This song is displayed as text-only. Transposing and tuning is only available for chordpro-songs.

Login - add to songbook

Rating click stars to rate

Layout
Accuracy

SHARE PAGE  




You need to log in to post comments