Chordie logo

Inquisition Symphony   Sepultura



guitar 1
let this ring out
intro is the acoustic(play these 2 lines 2x and then play the second
E -------2------------3-----------2-----------3---------------|
B ---1-------1----1-------1---1-------1---1-------1-----------|
G -----0---0--------0---0-------0---0-------0---0-------------|
D -4-----------4------------4-----------4---------------------|
A ------------------------------------------------------------|
E ------------------------------------------------------------|
line again 1x)

E -------0h1---------0h1----------0h1-----------0h1-----------|
B ---0-------0---0--------0---0---------0---0---------0-------|
G -----0---0-------0----0-------0-----0-------0-----0---------|
D -3-----------3------------3-------------3-------------------|
A ------------------------------------------------------------|
E ------------------------------------------------------------|

and then...
E ------------------------------------------------------------|
B ------------------------------------------------------------|
G ---1-0----1-0---1-0---1-0---1-0---1-0----1---0-(ring)-------|
D -2-----2------2-----2-----2-----2-----2---------------------|
A ------------------------------------------------------------|
E ------------------------------------------------------------|

both guitars
with distortion
8x				   8x
E ------------------------|-----------------------------------|
B ------------------------|-----------------------------------|
G ------------------------|-----9--8h9p8---9-8---8------------|
D ---6--5h6p5----6-5---5--|---7----------7-----7--------------|
A -7-----------7-----7----|-----------------------------------|
E ------------------------|-----------------------------------|

8x				   8x
E ------------------------|-----------------------------------|
B ------------------------|-----------------------------------|
G ------------------------|-----9--8h9p8---9-8---8------------|
D ---6--5h6p5---6-5---5---|---7----------7-----7--------------|
A -7----------7-----7-----|-----------------------------------|
E ------------------------|-----------------------------------|

4x
E ------------------------------------------------------------|
B ------------------------------------------------------------|
G ----12-11---11-10---10-----8-7---7-6---6--------------------|
D -10-------9-------9------6-----5-----5----------------------|
A ------------------------------------------------------------|
E ------------------------------------------------------------|

guitar 1 8x
E ------------------------------------------------------------|
B ------------------------------------------------------------|
G ------------------------------------------------------------|
D ---6-5---6-5---5--------------------------------------------|
A -7-----7-----7----------------------------------------------|
E ------------------------------------------------------------|
										  |
guitar 2 2x		(listen to recording for timing)		  |
E ------------------------------------------------------------|
B ------------------------------------------------------------|
G ------------------------------------------------------------|
D ------------------------------------------------------------|
A -2----------2-------2-2---------2~--(ring)------------------|
E -0----------0-------0-0---------0~--------------------------|
guitar 1 plays 2x and then guitar 2 joins in for the next 8x
E ------------------------------------------------------------|
B ------------------------------------------------------------|
G ------------------------------------------------------------|
D ------------------------------------------------------------|
A ------------------------------------------------------------|
E -0000000-0-0-0-0--------------------------------------------|

4x
E ------------------------------------------------------------|
B ------------------------------------------------------------|
G ------------------------------------------------------------|
D ------------------------------------------------------------|
A -------------3p2---111111-----------------------------------|
E -000002h3000----000-----------------------------------------|

4x
E ------------------------------------------------------------|
B ------------------------------------------------------------|
G -----------------------(trill)------------------------------|
D -------------------3-----1h2~-------------------------------|
A -00000000000000-/3------------------------------------------|
E ------------------------------------------------------------|

4x
E ------------------------------------------------------------|
B ------------------------------------------------------------|
G ------------------------------------------------------------|
D ------------------------------------------------------------|
A ------------3p2---111111------------------------------------|
E -000002h3000---000------------------------------------------|

4x
E ------------------------------------------------------------|
B ------------------------------------------------------------|
G -----------------------(trill)------------------------------|
D -------------------3-----1h2--------------------------------|
A -00000000000000-/3------------------------------------------|
E ------------------------------------------------------------|

guitar 1
E ------------------------------------------------------------|
B ------------------------------------------------------------|
G ------------------------------------------------------------|
D -------11---1----1------------------------------------------|
A -333333--333--333-333---------------------------------------|
E ------------------------------------------------------------|

guitar 2 now joins in with the same thing	only with the other part
4x
E ------------------------------------------------------------|
B ------------------------------------------------------------|
G ------------------------------------------------------------|
D -------11---1---1------44444--5555-444~---------------------|
A -333333--333-333-333-2-22222--------------------------------|
E ------------------------------------------------------------|

both guitars again
E ------------------------------------------------------------|
B ------------------------------------------------------------|
G ------------------------------------------------------------|
D -7---------------8------------------------------------------|
A -5---------------6------------8-----------------------------|
E ------------------------------6-----------------------------|

after this is played 1x with both guitars guitar 1 hits into
the solo while guitar 2 plays this again 2x
(listen to the song for the timing)
E ------------------------------------------------------------|
B ------------------------------------------------------------|
G ------------------------------------------------------------|
D ------------------------------------------------------------|
A -7-7777-7777-7777-7777-7777-7777-7777-----------------------|
E -5-5555-5555-5555-5555-5555-5555-5555-----------------------|

E ------------------------------------------------------------|
B ------------------------------------------------------------|
G ------------------------------------------------------------|
D ------------------------------------------------------------|
A -6-6666-6666-6666-6666-6666-6666-6666-----------------------|
E -4-4444-4444-4444-4444-4444-4444-4444-----------------------|

solo 1 (tap with your pick hand)
repeat this solo 4x
E ------------------------------------------------------------|
B ------------------------------------------------------------|
G -8p2-8p2-8p2-9p2-9p2-9p2-8p2-8p2-8p2-9p2-9p2-9p2-8p2-8p2-8p2|
D ------------------------------------------------------------|
A ------------------------------------------------------------|
E ------------------------------------------------------------|

E ------------------------------------------------------------|
B ------------------------------------------------------------|
G -9p2-9p2-9p2-8p2-8p2-8p2-9p2-9p2-9p2////12p8-12p8-12p8-12p8-|
D ------------------------------------------------------------|
A ------------------------------------------------------------|
E ------------------------------------------------------------|

E ------------------------------------------------------------|
B ------------------------------------------------------------|
G -12p8-12p8-12p8-12p8-12p8-12p8-12p8/-16p13-16p13-16p13------|
D ------------------------------------------------------------|
A ------------------------------------------------------------|
E ------------------------------------------------------------|

E ------------------------------------------------------------|
B ------------------------------------------------------------|
G -16p13-16p13-16p13-17p13-17p13-17p13-17p13------------------|
D ------------------------------------------------------------|
A ------------------------------------------------------------|
E ------------------------------------------------------------|

both guitars 2x (second time through skip the last part for the
three chords (you'll know what i mean when you listen to it)
E ----------------------------------------------------|--------|
B ----------------------------------------------------|--------|
G ----------------------------------------------------|--------|
D -555-55-444-44-555-55-444-4-555-55-444-4-555-55-444-|-5-5-4--|
A -333-33-222-22-333-33-222-2-333-33-222-2-333-33-222-|-3-3-2--|
E ----------------------------------------------------|--------|

guitar 1 and then guitar 2 joins in for a second run
E ------------------------------------------------------------|
B ------------------------------------------------------------|
G ------------------------------------------------------------|
D ------------------------------------------------------------|
A ------------------------------------------------------------|
E -0-00000-00000-00000-00000-00000-00000-00000----------------|

here is the all time bad ass riff
8x
E -----------------------------------------------|------------|
B -----------------------------------------------|------------|
G -----------------------------------------------|------------|
D -----------------------------------------------|-4-4-4-4----|
A -2-5-4-2-5-4-2-3-------------------------------|-2-2-2-2----|
E -0-3-2-0-3-2-0-1-------------------------------|------------|

interlude befor the next solo
E ------------------------------------------------------------|
B ------------------------------------------------------------|
G ------------------------------------------------------------|
D -4--3-333-4--3-333-4--3-333-4--3-333------------------------|
A -2--1-111-2--1-111-2--1-111-2--1-111------------------------|
E ------------------------------------------------------------|

E ------------------------------------------------------------|
B ------------------------------------------------------------|
G ------------------------------------------------------------|
D -8--7-777-8--7-777-8--7-777-8--7-777------------------------|
A -6--5-555-6--5-555-6--5-555-6--5-555------------------------|
E ------------------------------------------------------------|

solo 2
E ------------------------------------------------------------|
B ------------------------------------------------------------|
G -4h5~--4~--444--11h12~--11h12p11-9-8~-----------------------|
D ------------------------------------------------------------|
A ------------------------------------------------------------|
E ------------------------------------------------------------|

E ------------------------------------------------------------|
B --------8-10-12-10h12p10p8----8~----------------------------|
G -8-9-11--------------------11------16p9-16p8-16p9-16p11-----|
D ------------------------------------------------------------|
A ------------------------------------------------------------|
E ------------------------------------------------------------|

E ------------------------------------------------------------|
B ------------------------------------------------------------|
G -16p9-16p11-16p12-16p11-16p12-16p14~------------------------|
D ------------------------------------------------------------|
A ------------------------------------------------------------|
E ------------------------------------------------------------|

E -12-13-12-10-12-10------------------------------------------|
B -------------------12-13-12-10-12-9-10----------------------|
G ---------------------------------------11-10-9--------------|
D -----------------------------------------------12~----------|
A ------------------------------------------------------------|
E ------------------------------------------------------------|

E -------------------------------10-12~-----------------------|
B -------10-13-12h13p12-10-12-13------------------------------|
G ----10------------------------------------------------------|
D -12---------------------------------------------------------|
A ------------------------------------------------------------|
E ------------------------------------------------------------|

E -12-13-12-10----10-12-16-13-12-10----10-12-13-12-10----10---|
B -------------12-------------------12----------------12------|
G ------------------------------------------------------------|
D ------------------------------------------------------------|
A ------------------------------------------------------------|
E ------------------------------------------------------------|

E -12-13-16-13-12-10----10-12-15-12-10------------------------|
B -------------------12----------------12-13-12-10-9----------|
G ---------------------------------------------------11-9-----|
D ------------------------------------------------------------|
A ------------------------------------------------------------|
E ------------------------------------------------------------|

E ------------------------------------------------------------|
B ------------------------------------------------------------|
G ------------------------------------------------------------|
D -10-9-7~----------------------------------------------------|
A ------------------------------------------------------------|
E ------------------------------------------------------------|

interlude
E ------------------------------------------------------------|
B ------------------------------------------------------------|
G ------------------------------------------------------------|
D ------------------------------------------------------------|
A -2-2-2-2-2-2-2~---------------------------------------------|
E -0-0-0-0-0-0-0~---------------------------------------------|

this is the riff under the solo 3 by guitar 2
E ------------------------------------------------------------|
B ------------------------------------------------------------|

G ------------------------------------------------------------|
D -5-5555-5555-5555-554-4444-4444-4444-44---------------------|
A -3-3333-3333-3333-332-2222-2222-2222-224-4444-4444-4444-----|
E ---------------------------------------2-2222-2222-2222-----|

E ------------------------------------------------------------|
B ------------------------------------------------------------|
G ------------------------------------------------------------|
D ------------------------------------------------------------|
A -445-5555-5555-5555-----------------------------------------|
E -223-3333-3333-3333-----------------------------------------|

E ------------------------------------------------------------|
B ------------------------------------------------------------|
G ------------------------------------------------------------|
D -5-5555-5555-5555-554-4444-4444-4444-44---------------------|
A -3-3333-3333-3333-332-2222-2222-2222-225-5555-5555-5555-----|
E ---------------------------------------3-3333-3333-3333-----|

E ------------------------------------------------------------|
B ------------------------------------------------------------|
G ------------------------------------------------------------|
D ------------------------------------------------------------|
A -556-6666-6666-6666-----------------------------------------|
E -334-4444-4444-4444-----------------------------------------|

solo 3
guitar 1 (tap)
E ------------------------------------------------------------|
B -13h16h17p16p13p10-13h16h17p16p13p10-13h16h17p16p13p10------|
G ------------------------------------------------------------|
D ------------------------------------------------------------|
A ------------------------------------------------------------|
E ------------------------------------------------------------|

E ----------14p11-14p11-14p11-14p11-14p11-14p11-14p11---------|
B -13h16h17---------------------------------------------------|
G ------------------------------------------------------------|
D ------------------------------------------------------------|
A ------------------------------------------------------------|
E ------------------------------------------------------------|

E -17p14-17p14-17p14-17p14//\\-20p17p14h17p14-20p17p14h17p14--|
B ------------------------------------------------------------|
G ------------------------------------------------------------|
D ------------------------------------------------------------|
A ------------------------------------------------------------|
E ------------------------------------------------------------|

E -20p17p14h17p14-20p17p14h17p14-20p17p14h17-/24~-------------|
B ------------------------------------------------------------|
G ------------------------------------------------------------|
D ------------------------------------------------------------|
A ------------------------------------------------------------|
E ------------------------------------------------------------|

E -19p17p14h17-19p17p14h17-19p17p14h17-19p17p14h17------------|
B ------------------------------------------------------------|
G ------------------------------------------------------------|
D ------------------------------------------------------------|
A ------------------------------------------------------------|
E ------------------------------------------------------------|

E -20p17p14h17-20p17p14h17-20p17p14h17-20p17p14h17------------|
B ------------------------------------------------------------|
G ------------------------------------------------------------|
D ------------------------------------------------------------|
A ------------------------------------------------------------|
E ------------------------------------------------------------|

E -19p17p14h17-20p17p14h17-19p17p14h17-20p17p14h17------------|
B ------------------------------------------------------------|
G ------------------------------------------------------------|
D ------------------------------------------------------------|
A ------------------------------------------------------------|
E ------------------------------------------------------------|

E -19p17p14\9h12~-h14h17p14p12p9h12-14h17p14p12p9h12p9-7------|
B ------------------------------------------------------------|
G ------------------------------------------------------------|
D ------------------------------------------------------------|
A ------------------------------------------------------------|
E ------------------------------------------------------------|

E -7h9h12p9p7h9p7~--------------------------------------------|
B ------------------------------------------------------------|
G ------------------------------------------------------------|
D ------------------------------------------------------------|
A ------------------------------------------------------------|
E ------------------------------------------------------------|

guitar 1
2x
E -0//\\//12p9-12p9-12p9-12p9-12p8-12p8-12p8-12p8-12p7-12p7---|
B ------------------------------------------------------------|
G ------------------------------------------------------------|
D ------------------------------------------------------------|
A ------------------------------------------------------------|
E ------------------------------------------------------------|
guitar 2									  |
E ------------------------------------------------------------|
B ------------------------------------------------------------|
G ------------------------------------------------------------|
D ------5---------------------5-------------------5-----------|
A ------3--------2------------3------2------------3-----------|
E ---------------0-------------------0------------------------|

guitar 1
E -12p7-12p7-12p5-12p5-12p5-12p5------------------------------|
B ------------------------------------------------------------|
G ------------------------------------------------------------|
D ------------------------------------------------------------|
A ------------------------------------------------------------|
E ------------------------------------------------------------|
guitar 2									  |
E ------------------------------------------------------------|
B ------------------------------------------------------------|
G ------------------------------------------------------------|
D ------------5-5-5-5-----------------------------------------|
A -2----------3-3-3-3-----------------------------------------|
E -0----------------------------------------------------------|

guitar 1 plays this 1x and guitar 2 joins in for another 3x
E ------------------------------------------------------------|
B ------------------------------------------------------------|
G ------------------------------------------------------------|
D ------------------------------------------------------------|
A -----2---3-----2-----3---8---7------------------------------|
E -0-0---0---0-0---0-0---0---0---0----------------------------|

guitar 1	   guitar 2	     guitar 1    guitar 2
E ------------|-----1-0-1---|-----------|-----1-0-1-----------|
B ------------|---3-------3-|-----------|---3-------3---------|
G ------------|-4-----------|-----------|-4-------------------|
D ------------|-------------|-----------|---------------------|
A -2-2--2-2---|-------------|-2--2------|---------------------|
E -0-0--0-0---|-------------|-0--0------|---------------------|

guitar 1   guitar 2	 guitar 1	  guitar 2
E --------|-----1-0-1---|------------|-----1-0-1--------------|
B --------|---3-------3-|------------|---3-------3------------|
G --------|-4-----------|------------|-4----------------------|
D --------|-------------|------------|------------------------|
A -2--2---|-------------|-2--2-------|------------------------|
E -0--0---|-------------|-0--0-------|------------------------|

both guitars again
1x
E ------------------------------------------------------------|
B ------------------------------------------------------------|
G ------------------------------------------------------------|
D ------------------------------------------------------------|
A -2-2-2-2--2-2-2-2--2-2-2-2--2-2-2-2-------------------------|
E -0-0-0-0--0-0-0-0--0-0-0-0--0-0-0-0-------------------------|

2x
E -------------------------------------------------------|----|
B -------------------------------------------------------|----|
G -------------------------------------------------------|----|
D -------------------------------------------------------|----|
A -2-2-2-2-2222--2-2-2-2-2222--2-2-2-2-2222--2-2-2-2-2222|--2~|
E -0-0-0-0-0000--0-0-0-0-0000--0-0-0-0-0000--0-0-0-0-0000|--0~|

2x
E ------------------------------------------------------------|
B ------------------------------------------------------------|
G ------------------------------------------------------------|
D ------------------------------------------------------------|
A -2-2-2222-2-2-2222-2-2-2222-2-2-2222------------------------|
E -0-0-0000-0-0-0000-0-0-0000-0-0-0000------------------------|

4x
E ------------------------------------------------------------|
B ------------------------------------------------------------|
G ------------------------------------------------------------|
D ------------------------------------------------------------|
A ------------3p2---111111------------------------------------|
E -000002h3000---000------------------------------------------|

4x
E ------------------------------------------------------------|
B ------------------------------------------------------------|
G ------------------------(trill)-----------------------------|
D -------------------3-----1h2--------------------------------|
A -00000000000000-/3------------------------------------------|
E ------------------------------------------------------------|

4x
E ------------------------------------------------------------|
B ------------------------------------------------------------|
G ------------------------------------------------------------|
D ------------------------------------------------------------|
A ------------3p2---111111------------------------------------|
E -000002h3000---000------------------------------------------|

4x
E ------------------------------------------------------------|
B ------------------------------------------------------------|
G -----------------------(trill)------------------------------|
D -------------------3-----1h2--------------------------------|
A -00000000000000-/3------------------------------------------|
E ------------------------------------------------------------|

then there is some wierd artificial harmonicing
that you can improvise with scratching the edge of your
pick up and down the harmonics on the a, d, or b string
and end with a dive bomb on the a string using a
wammy bar

 and here is the end
E ------------------------------------------------------------|
B ------------------------------------------------------------|
G ------------------------------------------------------------|
D -8-----3--2-----------8-------3---2-2-2-2-2-2-2-2-2-2-2-2---|
A -6-----1--0-----------6-------1---0-0-0-0-0-0-0-0-0-0-0-0---|
E ------------------------------------------------------------|

E ------------------------------------------------------------|
B ------------------------------------------------------------|
G ------------------------------------------------------------|
D -8-----3--2-------------------------------------------------|
A -6-----1--0-------------------------------------------------|


Important: The song above is NOT stored on the Chordie server. The original song is hosted at www.xguitar.com. Chordie works as a search engine and provides on-the-fly formatting. Chordie does not index songs against artists/composers will. To remove this song please click here.

This song is displayed as text-only. Transposing and tuning is only available for chordpro-songs.

Login - add to songbook

Rating click stars to rate

Layout
Accuracy

SHARE PAGE  

You need to log in to post comments