Guitar Tabs, Chords and Lyrics


Screams Behind the Shadows   Sepultura



|-----------------|-----------------|-----------------|-----------------|
|-----------------|-----------------|-----------------|-----------------|
|-----------------|-----------------|-----------------|-----------------|
|-9-------9-------|-9-------9--10---|-8-------8-------|-8-------8---8---|
|-7-77777-7-77777-|-7-77777-7---7---|-6-66666-6-66666-|-6-66666-6---6---|
|-----------------|-----------------|-----------------|-----------------|

|-----------------|-----------------|-----------------|-----------------|
|-----------------|-----------------|-----------------|-----------------|
|-----------------|-----------------|-----------------|-----------------|
|-9-------9-------|-9-------9--10---|-8-------8-------|-8-------8---8---|
|-7-77777-7-77777-|-7-77777-7---7---|-6-66666-6-66666-|-6-66666-6---6---|
|-----------------|-----------------|-----------------|-----------------|

|-----------------|-----------------|-----------------|-----------------|
|-----------------|-----------------|-----------------|-----------------|
|-----------------|-----------------|-----------------|-----------------|
|-9-------9-------|-9-------9--10---|-8-------8-------|-8-------8---8---|
|-7-77777-7-77777-|-7-77777-7---7---|-6-66666-6-66666-|-6-66666-6---6---|
|-----------------|-----------------|-----------------|-----------------|

|-----------------|-----------------|-----------------|-----------------|
|-----------------|-----------------|-----------------|-----------------|
|-----------------|-----------------|-----------------|-----------------|
|-9-------9-------|-9-------9--10---|-8-------8-------|-8-------8---8---|
|-7-77777-7-77777-|-7-77777-7---7---|-6-66666-6-66666-|-6-66666-6---6---|
|-----------------|-----------------|-----------------|-----------------|

|-----------------|-----------------|-----------------|-----------------|
|-----------------|-----------------|-----------------|-----------------|
|-----------------|-----------------|-----------------|-----------------|
|-9-------9-------|-9-------9--10---|-8-------8-------|-8-------8---8---|
|-7-77777-7-77777-|-7-77777-7---7---|-6-66666-6-66666-|-6-66666-6---6---|
|-----------------|-----------------|-----------------|-----------------|

|-----------------|-----------------|-----------------|-----------------|
|-----------------|-----------------|-----------------|-----------------|
|-----------------|-----------------|-----------------|-----------------|
|-9-------9-------|-9-------9--10---|-8-------8-------|-8-------8---8---|
|-7-77777-7-77777-|-7-77777-7---7---|-6-66666-6-66666-|-6-66666-6---6---|
|-----------------|-----------------|-----------------|-----------------|

|-----------------|-----------------|-----------------|-----------------|
|-----------------|-----------------|-----------------|-----------------|
|-----------------|-----------------|-----------------|-----------------|
|-----------------|-----------------|-----------------|-----------------|
|-4-4-4-4-3-3-3-3-|-4-4-4-4-3-3-3-3-|-4-4-4-4-3-3-3-3-|-4-4-4-4-3-3-3-3-|
|-2-2-2-2-1-1-1-1-|-2-2-2-2-1-1-1-1-|-2-2-2-2-1-1-1-1-|-2-2-2-2-1-1-1-1-|

|-----------------|-----------------|-----------------|-----------------|
|-----------------|-----------------|-----------------|-----------------|
|-----------------|-----------------|-----------------|-----------------|
|-----------------|-----------------|-----------------|-----------------|
|-4-4-4-4-3-3-3-3-|-4-4-4-4-3-3-3-3-|-4-4-4-4-3-3-3-3-|-4-4-4-4-333-333-|
|-2-2-2-2-1-1-1-1-|-2-2-2-2-1-1-1-1-|-2-2-2-2-1-1-1-1-|-2-2-2-2-111-111-|

|-----------------|-----------------|-----------------|-----------------||
|-----------------|-----------------|-----------------|-----------------||
|-----------------|-----------------|-----------------|-----------------||
|-----------------|-----------------|-----------------|-----------------||
|-4-4-4-4-3-3-3-3-|-4-4-4-4-3-3-3-3-|-4-4-4-4-3-3-3-3-|-4-4-4-4-333-333-||
|-2-2-2-2-1-1-1-1-|-2-2-2-2-1-1-1-1-|-2-2-2-2-1-1-1-1-|-2-2-2-2-111-111-||

|-----------------|-----------------|-----------------|-----------------|
|-----------------|-----------------|-----------------|-----------------|
|-----------------|-----------------|-----------------|-----------------|
|-9-------9-------|-9-------9--10---|-8-------8-------|-8-------8---8---|
|-7-77777-7-77777-|-7-77777-7---7---|-6-66666-6-66666-|-6-66666-6---6---|
|-----------------|-----------------|-----------------|-----------------|

|-----------------|-----------------|-----------------|-----------------|
|-----------------|-----------------|-----------------|-----------------|
|-----------------|-----------------|-----------------|-----------------|
|-9-------9-------|-9-------9--10---|-8-------8-------|-8-------8---8---|
|-7-77777-7-77777-|-7-77777-7---7---|-6-66666-6-66666-|-6-66666-6---6---|
|-----------------|-----------------|-----------------|-----------------|

|-----------------|-----------------|-----------------|-----------------|
|-----------------|-----------------|-----------------|-----------------|
|-----------------|-----------------|-----------------|-----------------|
|-9-------9-------|-9-------9--10---|-8-------8-------|-8-------8---8---|
|-7-77777-7-77777-|-7-77777-7---7---|-6-66666-6-66666-|-6-66666-6---6---|
|-----------------|-----------------|-----------------|-----------------|

|-----------------||
|-----------------||
|-----------------||
|-9---------------||
|-7---------------||
|-----------------||

|-----------------|-----------------|-----------------|-----------------|
|-----------------|-----------------|-----------------|-----------------|
|-----------------|-----------------|-----------------|-----------------|
|-----------------|---------4---3---|-----------------|---------4---3---|
|-----------------|-333333332---1---|-----------------|-333333332---1---|
|-3333333322222222|-----------------|-3333333322222222|-----------------|

|-----------------|-----------------|-----------------|-----------------||
|-----------------|-----------------|-----------------|-----------------||
|-----------------|-----------------|-----------------|-----------------||
|-----------------|---------4---3---|-----------------|---------4---3---||
|-----------------|-333333332---1---|-----------------|-333333332---1---||
|-3333333322222222|-----------------|-3333333322222222|-----------------||

|-----------------|-----------------|-----------------|-----------------||
|-----------------|-----------------|-----------------|-----------------||
|-----------------|-----------------|-----------------|-----------------||
|-----------------|-----------------|-----------------|-----------------||
|---------55555555|-66666666--------|---------55555555|-66666666--------||
|-33333333--------|---------66666666|-33333333--------|---------66666666||

|-----------------|-----------------|-----------------|-----------------||
|-----------------|-----------------|-----------------|-----------------||
|-----------------|-----------------|-----------------|-----------------||
|-----------------|-----------------|-----------------|-----------------||
|---------88888888|-77777777--------|---------88888888|-77777777--------||
|-66666666--------|---------99999999|-66666666--------|---------99999999||

|-----------------|-----------------|-----------------|-----------------||
|-----------------|-----------------|-----------------|-----------------||
|-----------------|-----------------|-----------------|-----------------||
|-----------------|-----------------|-----------------|-----------------||
|---------55555555|-66666666--------|---------55555555|-66666666--------||
|-33333333--------|---------66666666|-33333333--------|---------66666666||

|-----------------|-----------------|-----------------|-----------------||
|-----------------|-----------------|-----------------|-----------------||
|-----------------|-----------------|-----------------|-----------------||
|-----------------|-----------------|-----------------|-----------------||
|---------88888888|-77777777--------|---------88888888|-77777777--------||
|-66666666--------|---------99999999|-66666666--------|---------99999999||

|-----------------|-----------------|-----------------|-----------------|
|-----------------|-----------------|-----------------|-----------------|
|-----------------|-----------------|-----------------|-----------------|
|---------7-------|-8---------------|---------7-------|-8---------------|
|-5-------5-------|-6-------8--7--6-|-5-------5-------|-6-------8--7--6-|
|-3---------------|---------6--5--4-|-3---------------|---------6--5--4-|

|-----------------||
|-----------------||
|-----------------||
|-----------------||
|-5---------------||
|-3---------------||

|-----------------|-----------------|-----------------|-----------------|
|-----------------|-----------------|-----------------|-----------------|
|-----------------|-----------------|-----------------|-----------------|
|-----------------|---------4---3---|-----------------|---------4---3---|
|-----------------|-333333332---1---|-----------------|-333333332---1---|
|-3333333322222222|-----------------|-3333333322222222|-----------------|

|-----------------|-----------------|-----------------|-----------------||
|-----------------|-----------------|-----------------|-----------------||
|-----------------|-----------------|-----------------|-----------------||
|-----------------|---------4---3---|-----------------|---------4---3---||
|-----------------|-333333332---1---|-----------------|-333333332---1---||
|-3333333322222222|-----------------|-3333333322222222|-----------------||

|-----------------|-----------------|-----------------|-----------------||
|-----------------|-----------------|-----------------|-----------------||
|-----------------|-----------------|-----------------|-----------------||
|-----------------|-----------------|-----------------|-----------------||
|---------55555555|-66666666--------|---------55555555|-66666666--------||
|-33333333--------|---------66666666|-33333333--------|---------66666666||

|-----------------|-----------------|-----------------|-----------------||
|-----------------|-----------------|-----------------|-----------------||
|-----------------|-----------------|-----------------|-----------------||
|-----------------|-----------------|-----------------|-----------------||
|---------88888888|-77777777--------|---------88888888|-77777777--------||
|-66666666--------|---------99999999|-66666666--------|---------99999999||

|-----------------|-----------------|-----------------|-----------------||
|-----------------|-----------------|-----------------|-----------------||
|-----------------|-----------------|-----------------|-----------------||
|-----------------|-----------------|-----------------|-----------------||
|---------55555555|-66666666--------|---------55555555|-66666666--------||
|-33333333--------|---------66666666|-33333333--------|---------66666666||

|-----------------|-----------------|-----------------|-----------------||
|-----------------|-----------------|-----------------|-----------------||
|-----------------|-----------------|-----------------|-----------------||
|-----------------|-----------------|-----------------|-----------------||
|---------88888888|-77777777--------|---------88888888|-77777777--------||
|-66666666--------|---------99999999|-66666666--------|---------99996---||

|-----------------||
|-----------------||
|-----------------||
|-----------------||
|-----------------||
|-7---------------||

 204 bpm
|-----------------|-----------------|-----------------|-----------------|
|-----------------|-----------------|-----------------|-----------------|
|-----------------|-----------------|-----------------|-----------------|
|-----------------|-----------------|-----------------|-----8-7-108-7---|
|-----------------|-----7-7-----6-6-|-----------------|-8-7-----------8-|
|-0-0-0-0-0-0-0-0-|-0-0-----0-0-----|-0-000-000-000-0-|-----------------|

|-----------------|-----------------|-----------------|-----------------|
|-----------------|-----------------|-----------------|-----------------|
|-----------------|-----------------|-----------------|-----------------|
|-----------------|-----------------|-----------------|-----8-7-108-7---|
|-----------------|-----7-7-----6-6-|-----------------|-8-7-----------8-|
|-0-0-0-0-0-0-0-0-|-0-0-----0-0-----|-0-000-000-000-0-|-----------------|

|-----------------|-----------------|-----------------|-----------------|
|-----------------|-----------------|-----------------|-----------------|
|-----------------|-----------------|-----------------|-----------------|
|-----------------|-----------------|-----------------|-----8-7-108-7---|
|-----------------|-----7-7-----6-6-|-----------------|-8-7-----------8-|
|-0-0-0-0-0-0-0-0-|-0-0-----0-0-----|-0-000-000-000-0-|-----------------|

|-----------------|-----------------|-----------------|-----------------||
|-----------------|-----------------|-----------------|-----------------||
|-----------------|-----------------|-----------------|-----------------||
|-----------------|-----------------|-----------------|-----8-7-108-7---||
|-----------------|-----7-7-----6-6-|-----------------|-8-7-----------8-||
|-0-0-0-0-0-0-0-0-|-0-0-----0-0-----|-0-000-000-000-0-|-----------------||

 240 bpm
|-----------------|-----------------|-----------------|-----------------|
|-----------------|-----------------|-----------------|-----------------|
|-----------------|-----------------|-----------------|-----------------|
|-----------------|-----------------|-----------------|-----------------|
|-7---------------|-----------------|-----------------|-----------------|
|-----------------|-----------------|-0---------------|-0---------------|

|-----------------|-----------------|-----------------|-----------------||
|-----------------|-----------------|-----------------|-----------------||
|-----------------|-----------------|-----------------|-----------------||
|-----------------|-----------------|-----------------|-----------------||
|-----------------|-------------8---|-----------------|-------------8---||
|-0000770088007700|-880077007777----|-0000770088007700|-880077007777----||

|-----------------|-----------------|-----------------|-----------------|
|-----------------|-----------------|-----------------|-----------------|
|-----------------|-----------------|-----------------|-----------------|
|-----------------|-----------------|-----------------|-----------------|
|-----------------|-------------8---|-----------------|-------------8---|
|-0000770088007700|-880077007777----|-0000770088007700|-880077007777----|

|-----------------|-----------------|-----------------|-----------------||
|-----------------|-----------------|-----------------|-----------------||
|-----------------|-----------------|-----------------|-----------------||
|-----------------|-----------------|-----------------|-----------------||
|-----------------|-------------8---|-----------------|-------------8---||
|-0000770088007700|-880077007777----|-0000770088007700|-880077007777----||

|-----------------|-----------------|-----------------|-----------------|
|-----------------|-----------------|-----------------|-----------------|
|-----------------|-----------------|-----------------|-----------------|
|-----------------|-----------------|-----------------|-----------------|
|-5---------------|(5)--------------|-8---------------|(8)--------------|
|-3---------------|(3)--------------|-6---------------|(6)--------------|

|-----------------|-----------------|-----------------|-----------------|
|-----------------|-----------------|-----------------|-----------------|
|-----------------|-----------------|-----------------|-----------------|
|-----------------|-----------------|-----------------|-----------------|
|-9-------2-------|-2-------2-------|-2-------2-------|-2-------5--4--2-|
|-7---000-0---000-|-0---000-0---000-|-0---000-0---000-|-0---000-3--2--0-|

|-----------------|-----------------|-----------------|-----------------|
|-----------------|-----------------|-----------------|-----------------|
|-----------------|-----------------|-----------------|-----------------|
|-----------------|-----------------|-----------------|-----------------|
|-5---------------|(5)--------------|-8---------------|(8)--------------|
|-3---------------|(3)--------------|-6---------------|(6)--------------|

|-----------------|-----------------|-----------------|-----------------||
|-----------------|-----------------|-----------------|-----------------||
|-----------------|-----------------|-----------------|-----------------||
|-----------------|-----------------|-----------------|-----------------||
|-9-------2-------|-2-------2-------|-2-------2-------|-2-------5--4--2-||
|-7---000-0---000-|-0---000-0---000-|-0---000-0---000-|-0---000-3--2--0-||

 228 bpm
|-----------------|-----------------|-----------------|-----------------|
|-----------------|-----------------|-----------------|-----------------|
|-----------------|-----------------|-----------------|-----------------|
|-----------------|-----------------|-----------------|-----------------|
|-7-------7-------|-7-------7---7---|-6-------6-------|-6-------6---6---|
|-5---5-5-5---5-5-|-5---5-5-5---5---|-4---4-4-4---4-4-|-4---4-4-4---4---|

|-----------------|-----------------|-----------------|-----------------|
|-----------------|-----------------|-----------------|-----------------|
|-----------------|-----------------|-----------------|-----------------|
|-----------------|-----------------|-----------------|-----------------|
|---7-8---7-8---7-|-8---7-8---7-8-7-|---7-8---7-8---7-|-8---7-8---7-8-7-|
|-0-----0-----0---|---0-----0-------|-0-----0-----0---|---0-----0-------|

|-----------------|-----------------|-----------------|-----------------|
|-----------------|-----------------|-----------------|-----------------|
|-----------------|-----------------|-----------------|-----------------|
|-----------------|-----------------|-----------------|-----------------|
|-7-------7-------|-7-------7---7---|-6-------6-------|-6-------6---6---|
|-5---5-5-5---5-5-|-5---5-5-5---5---|-4---4-4-4---4-4-|-4---4-4-4---4---|

|-----------------|-----------------|-----------------|-----------------||
|-----------------|-----------------|-----------------|-----------------||
|-----------------|-----------------|-----------------|-----------------||
|-----------------|-----------------|-----------------|-----------------||
|---7-8---7-8---7-|-8---7-8---7-8-7-|---7-8---7-8---7-|-8---7-8---7-8-7-||
|-0-----0-----0---|---0-----0-------|-0-----0-----0---|---0-----0-------||

|-----------------|-----------------|-----------------|-----------------|
|-----------------|-----------------|-----------------|-----------------|
|-----------------|-----------------|-----------------|-----------------|
|-----------------|-----------------|-----------------|-----------------|
|-7---------------|(7)--------------|-6---------------|(6)--------------|
|-5---------------|(5)--------------|-4---------------|(4)--------------|

|-----------------|-----------------|-----------------|-----------------|
|-----------------|-----------------|-----------------|-----------------|
|-----------------|-----------------|-----------------|-----------------|
|-----------------|-----------------|-----------------|-----------------|
|-7---------------|(7)--------------|-6---------------|(6)--------------|
|-5---------------|(5)--------------|-4---------------|(4)--------------|

|-----------------|-----------------|-----------------|-----------------|
|-----------------|-----------------|-----------------|-----------------|
|-----------------|-----------------|-----------------|-----------------|
|-----------------|-----------------|-----------------|-----------------|
|-7---------------|(7)--------------|-6---------------|(6)--------------|
|-5---------------|(5)--------------|-4---------------|(4)--------------|

|-----------------|-----------------|-----------------|-----------------||
|-----------------|-----------------|-----------------|-----------------||
|-----------------|-----------------|-----------------|-----------------||
|-----------------|-----------------|-----------------|-----------------||
|-7---------------|(7)--------------|-6---------------|(6)--------------||
|-5---------------|(5)--------------|-4---------------|(4)--------------||

 guitar solo
|-----------------|-----------------|-----------------|-----------------|
|-----------------|-----------------|-----------------|-----------------|
|-----------------|-----------------|-----------------|-----------------|
|-----------------|-----------------|-----------------|-----------------|
|-----------------|-----------------|-----------------|-----------------|
|-5-5555555-555555|-5-5555555-555555|-4-4444444-444444|-4-4444444-444444|

|-----------------|-----------------|-----------------|-----------------||
|-----------------|-----------------|-----------------|-----------------||
|-----------------|-----------------|-----------------|-----------------||
|-----------------|-----------------|-----------------|-----------------||
|-----------------|-----------------|-----------------|-----------------||
|-5-5555555-555555|-5-5555555-555555|-4-4444444-444444|-4-4444444-444444||

|-----------------|-----------------|-----------------|-----------------|
|-----------------|-----------------|-----------------|-----------------|
|-----------------|-----------------|-----------------|-----------------|
|-----------------|-----------------|-----------------|-----------------|
|-7-7777777-777777|-7-7777777---6---|-8-8888888-888888|-8-8888888---6---|
|-----------------|-----------------|-----------------|-----------------|

|-----------------|-----------------|-----------------|-----------------||
|-----------------|-----------------|-----------------|-----------------||
|-----------------|-----------------|-----------------|-----------------||
|-----------------|-----------------|-----------------|-----------------||
|-7-7777777-777777|-7-7777777---6---|-8-8888888-888888|-8-8888888---8---||
|-----------------|-----------------|-----------------|-----------------||

|-----------------|-----------------|-----------------|-----------------|
|-----------------|-----------------|-----------------|-----------------|
|-----------------|-----------------|-----------------|-----------------|
|-----------------|-----------------|-----------------|-----------------|
|-----------------|-----------------|-----------------|-----------------|
|-5-5555555-555555|-5-5555555-555555|-4-4444444-444444|-4-4444444-444444|

|-----------------|-----------------|-----------------|-----------------||
|-----------------|-----------------|-----------------|-----------------||
|-----------------|-----------------|-----------------|-----------------||
|-----------------|-----------------|-----------------|-----------------||
|-----------------|-----------------|-----------------|-----------------||
|-5-5555555-555555|-5-5555555-555555|-4-4444444-444444|-4-4444444-444444||

|-----------------|-----------------|-----------------|-----------------|
|-----------------|-----------------|-----------------|-----------------|
|-----------------|-----------------|-----------------|-----------------|
|-----------------|-----------------|-----------------|-----------------|
|-7-7777777-777777|-7-7777777---6---|-8-8888888-888888|-8-8888888---6---|
|-----------------|-----------------|-----------------|-----------------|

|-----------------|-----------------|-----------------|-----------------||
|-----------------|-----------------|-----------------|-----------------||
|-----------------|-----------------|-----------------|-----------------||
|-----------------|-----------------|-----------------|-----------------||
|-7-7777777-777777|-7-7777777---6---|-8-8888888-888888|-8-8888888---8---||
|-----------------|-----------------|-----------------|-----------------||

|-----------------|-----------------|-----------------|-----------------|
|-----------------|-----------------|-----------------|-----------------|
|-----------------|-----------------|-----------------|-----------------|
|-----------------|---------4---3---|-----------------|---------4---3---|
|-----------------|-333333332---1---|-----------------|-333333332---1---|
|-3333333322222222|-----------------|-3333333322222222|-----------------|

|-----------------|-----------------|-----------------|-----------------||
|-----------------|-----------------|-----------------|-----------------||
|-----------------|-----------------|-----------------|-----------------||
|-----------------|---------4---3---|-----------------|---------4---3---||
|-----------------|-333333332---1---|-----------------|-333333332---1---||
|-3333333322222222|-----------------|-3333333322222222|-----------------||

|-----------------|-----------------|-----------------|-----------------|
|-----------------|-----------------|-----------------|-----------------|
|-----------------|-----------------|-----------------|-----------------|
|-9-------9-------|-9-------9--10---|-8-------8-------|-8-------8---8---|
|-7-77777-7-77777-|-7-77777-7---7---|-6-66666-6-66666-|-6-66666-6---6---|
|-----------------|-----------------|-----------------|-----------------|

|-----------------|-----------------|-----------------|-----------------|
|-----------------|-----------------|-----------------|-----------------|
|-----------------|-----------------|-----------------|-----------------|
|-9-------9-------|-9-------9--10---|-8-------8-------|-8-------8---8---|
|-7-77777-7-77777-|-7-77777-7---7---|-6-66666-6-66666-|-6-66666-6---6---|
|-----------------|-----------------|-----------------|-----------------|

 90 bpm
|-----------------|-----------------|-----------------|-----------------|
|-----------------|-----------------|-----------------|-----------------|
|-----------------|-----------------|-----------------|-----------------|
|-----------------|-8---------------|-----------------|-8---------------|
|-2---------------|-6---------------|-2---------------|-6---------------|
|-0---------------|-----------------|-0---------------|-----------------|

|-----------------|-----------------||
|-----------------|-----------------||
|-----------------|-----------------||
|-----------------|-----------------||
|-2---------------|-2---------------||


Important: The song above is NOT stored on the Chordie server. The original song is hosted at www.xguitar.com. Chordie works as a search engine and provides on-the-fly formatting. Chordie does not index songs against artists'/composers' will. To remove this song please click here.

This song is displayed as text-only. Transposing and tuning is only available for chordpro-songs.

Login - add to songbook

Rating click stars to rate

Layout
Accuracy

SHARE PAGE  




You need to log in to post comments