Guitar Tabs, Chords and Lyrics


To the Wall   Sepultura



This is the bass-line, so listen to the CD and you'll know what the guitar plays.

|-----------------|-----------------|-----------------|-----------------|
|-----------------|-----------------|-----------------|-----------------|
|-----------------|-----------------|-----------------|-----------------|
|-----------------|-----------------|-----------------|-----------------|
|-----------------|---------110---2-|-----------------|-----------------|
|-0-0-0-0-550-0-0-|-330-0-0-----3---|-0-0-0-0-550-0-0-|-330-0-0-1-1-1-1-|

|-----------------|-----------------|-----------------|-----------------||
|-----------------|-----------------|-----------------|-----------------||
|-----------------|-----------------|-----------------|-----------------||
|-----------------|-----------------|-----------------|-----------------||
|-----------------|---------110---2-|-----------------|-----------------||
|-0-0-0-0-550-0-0-|-330-0-0-----3---|-0-0-0-0-550-0-0-|-330-0-0-1-1-1-1-||

|-----------------|-----------------|-----------------|-----------------|
|-----------------|-----------------|-----------------|-----------------|
|-----------------|-----------------|-----------------|-----------------|
|-----------------|-----------------|-----------------|-----------------|
|-----------------|-----------------|-----------------|---------3-2-0---|
|-0---------------|-----------------|-----------------|---------------0-|

|-----------------|-----------------|-----------------|-----------------||
|-----------------|-----------------|-----------------|-----------------||
|-----------------|-----------------|-----------------|-----------------||
|-----------------|-----------------|-----------------|-----------------||
|-----------------|-----------------|-----------------|---------3-2-0---||
|-0---------------|(0)--------------|-0---------------|(0)------------0-||

|-----------------|-----------------|-----------------|-----------------|
|-----------------|-----------------|-----------------|-----------------|
|-----------------|-----------------|-----------------|-----------------|
|-----------------|-----4-------5---|-----------------|-----4-----------|
|-----6---7-----6-|---------7-------|-----6---7-----6-|---------3-2-0---|
|-0-0---0---0-0---|-0-0---0---0---0-|-0-0---0---0-0---|-0-0---0-------0-|

|-----------------|-----------------|-----------------|-----------------|
|-----------------|-----------------|-----------------|-----------------|
|-----------------|-----------------|-----------------|-----------------|
|-----------------|-----4-------5---|-----------------|-----4-----------|
|-----6---7-----6-|---------7-------|-----6---7-----6-|---------3-2-0---|
|-0-0---0---0-0---|-0-0---0---0---0-|-0-0---0---0-0---|-0-0---0-------0-|

|-----------------|-----------------||
|-----------------|-----------------||
|-----------------|-----------------||
|-----------------|-----------------||
|-----------------|-----------------||
|-4444444444444444|-3333333366666666||

 verse 1
|-----------------|-----------------|-----------------|-----------------|
|-----------------|-----------------|-----------------|-----------------|
|-----------------|-----------------|-----------------|-----------------|
|-----------------|-----------------|-----------------|-----------------|
|-----------------|-----------------|-----------------|-----------------|
|-0-0-0-0-000-0-0-|-000-0-0-1-1-1-1-|-0-0-0-0-000-0-0-|-000-0-0-1-1-1-1-|

|-----------------|-----------------|-----------------|-----------------||
|-----------------|-----------------|-----------------|-----------------||
|-----------------|-----------------|-----------------|-----------------||
|-----------------|-----------------|-----------------|-----------------||
|-----------------|-----------------|-----------------|-----------------||
|-0-0-0-0-000-0-0-|-000-0-0-1-1-1-1-|-0-0-0-0-000-0-0-|-000-0-0-1-1-1-1-||

|-----------------|-----------------|-----------------|-----------------||
|-----------------|-----------------|-----------------|-----------------||
|-----------------|-----------------|-----------------|-----------------||
|-----------------|-----------------|-----------------|-----------------||
|---------1-----0-|---------1---2p1-|---------1-----0-|---------1---0---||
|-2-2-2-2---2-2---|-2-2-2-2---2-----|-2-2-2-2---2-2---|-2-2-2-2---2-----||

 verse 2
|-----------------|-----------------|-----------------|-----------------|
|-----------------|-----------------|-----------------|-----------------|
|-----------------|-----------------|-----------------|-----------------|
|-----------------|-----------------|-----------------|-----------------|
|-----------------|-----------------|-----------------|-----------------|
|-0-0-0-0-000-0-0-|-000-0-0-1-1-1-1-|-0-0-0-0-000-0-0-|-000-0-0-1-1-1-1-|

|-----------------|-----------------|-----------------|-----------------||
|-----------------|-----------------|-----------------|-----------------||
|-----------------|-----------------|-----------------|-----------------||
|-----------------|-----------------|-----------------|-----------------||
|-----------------|-----------------|-----------------|-----------------||
|-0-0-0-0-000-0-0-|-000-0-0-1-1-1-1-|-0-0-0-0-000-0-0-|-000-0-0-1-1-1-1-||

                                                      2/4
|-----------------|-----------------|-----------------|---------|
|-----------------|-----------------|-----------------|---------|
|-----------------|-----------------|-----------------|---------|
|-----------------|-----------------|-----------------|---------|
|-----------------|-8\7-------------|-----------------|-----1---|
|-0-0-0-0-5\4-0-0-|-----0-0-0-0-0-0-|-0-0-0-0-5\4-0-0-|-2-2---2-|

4/4                                                   2/4
|-----------------|-----------------|-----------------|---------|
|-----------------|-----------------|-----------------|---------|
|-----------------|-----------------|-----------------|---------|
|-----------------|-----------------|-----------------|---------|
|-----------------|-8\7-------------|-----------------|-----1---|
|-0-0-0-0-5\4-0-0-|-----0-0-0-0-0-0-|-0-0-0-0-5\4-0-0-|-2-2---2-|

4/4                                                   2/4
|-----------------|-----------------|-----------------|---------|
|-----------------|-----------------|-----------------|---------|
|-----------------|-----------------|-----------------|---------|
|-----------------|-----------------|-----------------|---------|
|-----------------|-8\7-------------|-----------------|-----1---|
|-0-0-0-0-5\4-0-0-|-----0-0-0-0-0-0-|-0-0-0-0-5\4-0-0-|-2-2---2-|

4/4                                                   2/4
|-----------------|-----------------|-----------------|---------||
|-----------------|-----------------|-----------------|---------||
|-----------------|-----------------|-----------------|---------||
|-----------------|-----------------|-----------------|---------||
|-----------------|-8\7-------------|-----------------|-----1---||
|-0-0-0-0-5\4-0-0-|-----0-0-0-0-0-0-|-0-0-0-0-5\4-0-0-|-2-2---2-||

 chorus
4/4
|-----------------|-----------------|-----------------|-----------------|
|-----------------|-----------------|-----------------|-----------------|
|-----------------|-----------------|-----------------|-----------------|
|-----------------|-----------------|-----------------|-----------------|
|-----------------|-11111111--------|-----------------|-11111111--------|
|-2222222222222222|---------11111111|-2222222222222222|---------11111111|

|-----------------|-----------------|-----------------|-----------------|
|-----------------|-----------------|-----------------|-----------------|
|-----------------|-----------------|-----------------|-----------------|
|-----------------|-----------------|-----------------|-----------------|
|-----------------|-11111111--------|-----------------|-11111111--------|
|-2222222222222222|---------11111111|-2222222222222222|---------11111111|

|-----------------|-----------------|-----------------|-----------------|
|-----------------|-----------------|-----------------|-----------------|
|-----------------|-----------------|-----------------|-----------------|
|-----------------|-----------------|-----------------|-----------------|
|-----------------|-11111111--------|-----------------|-11111111--------|
|-2222222222222222|---------11111111|-2222222222222222|---------11111111|

|-----------------|-----------------|-----------------|-----------------||
|-----------------|-----------------|-----------------|-----------------||
|-----------------|-----------------|-----------------|-----------------||
|-----------------|-----------------|-----------------|-----------------||
|-----------------|-11111111--------|-----------------|-11111111--------||
|-2222222222222222|---------11111111|-2222222222222222|---------11111111||

 verse 3
|-----------------|-----------------|-----------------|-----------------|
|-----------------|-----------------|-----------------|-----------------|
|-----------------|-----------------|-----------------|-----------------|
|-----------------|-----------------|-----------------|-----------------|
|-----------------|-----------------|-----------------|-----------------|
|-0-0-0-0-000-0-0-|-000-0-0-1-1-1-1-|-0-0-0-0-000-0-0-|-000-0-0-1-1-1-1-|

|-----------------|-----------------|-----------------|-----------------||
|-----------------|-----------------|-----------------|-----------------||
|-----------------|-----------------|-----------------|-----------------||
|-----------------|-----------------|-----------------|-----------------||
|-----------------|-----------------|-----------------|-----------------||
|-0-0-0-0-000-0-0-|-000-0-0-1-1-1-1-|-0-0-0-0-000-0-0-|-000-0-0-1-1-1-1-||

|-----------------|-----------------|-----------------|-----------------|
|-----------------|-----------------|-----------------|-----------------|
|-----------------|-----------------|-----------------|-----------------|
|-----------------|-----------------|-----------------|-----------------|
|-----------------|-11111111--------|-----------------|-11111111--------|
|-2222222222222222|---------11111111|-2222222222222222|---------11111111|

|-----------------|-----------------|-----------------|-----------------||
|-----------------|-----------------|-----------------|-----------------||
|-----------------|-----------------|-----------------|-----------------||
|-----------------|-----------------|-----------------|-----------------||
|-----------------|-11111111--------|-----------------|-11111111--------||
|-2222222222222222|---------11111111|-2222222222222222|---------11111111||

|-----------------|-----------------|-----------------|-----------------|
|-----------------|-----------------|-----------------|-----------------|
|-----------------|-----------------|-----------------|-----------------|
|-----------------|-----------------|-----------------|-----------------|
|-----------------|-----------------|-----------------|-----------------|
|-0---------------|(0)--------3-----|-6---------------|(6)------3--2--1-|

|-----------------|-----------------|-----------------|-----------------|
|-----------------|-----------------|-----------------|-----------------|
|-----------------|-----------------|-----------------|-----------------|
|-----------------|-----------------|-----------------|-----------------|
|-----------------|-----------------|-----------------|-----------------|
|-0---------------|(0)--------3-----|-6---------------|(6)------3--2--1-|

|-----------------|-----------------|-----------------|-----------------|
|-----------------|-----------------|-----------------|-----------------|
|-----------------|-----------------|-----------------|-----------------|
|-----------------|-----------------|-----------------|-----------------|
|-----------------|-----------------|-----------------|-----------------|
|-0---------------|(0)--------3-----|-6---------------|(6)------3--2--1-|

|-----------------|-----------------|-----------------|-----------------||
|-----------------|-----------------|-----------------|-----------------||
|-----------------|-----------------|-----------------|-----------------||
|-----------------|-----------------|-----------------|-----------------||
|-----------------|-----------------|-----------------|-----------------||
|-0---------------|(0)--------3-----|-6---------------|(6)------3--2--1-||

 132 bpm
|-----------------|-----------------|-----------------|-----------------|
|-----------------|-----------------|-----------------|-----------------|
|-----------------|-----------------|-----------------|-----------------|
|-----------------|-----------------|-----------------|-----------------|
|---------2-------|-1--------2--1-1-|---------2-------|-1--------2--1-1-|
|-0---320-----320-|-----000-3-2--1--|-0---320-----320-|-----000-3-2--1--|

|-----------------|-----------------|-----------------|-----------------||
|-----------------|-----------------|-----------------|-----------------||
|-----------------|-----------------|-----------------|-----------------||
|-----------------|-----------------|-----------------|-----------------||
|---------2-------|-1--------2--1-1-|---------2-------|-1--------2--1-1-||
|-0---320-----320-|-----000-3-2--1--|-0---320-----320-|-----000-3-2--1--||

|-----------------|-----------------|-----------------|-----------------||
|-----------------|-----------------|-----------------|-----------------||
|-----------------|-----------------|-----------------|-----------------||
|---------2-------|-1--------2--1-1-|---------2-------|-1--------2--1-1-||
|-0---320-----320-|-----000-3-2--1--|-0---320-----320-|-----000-3-2--1--||
|-----------------|-----------------|-----------------|-----------------||

 264 bpm          3/4           4/4
|-----------------|-------------|-----------------|-----------------|
|-----------------|-------------|-----------------|-----------------|
|-----------------|-------------|-----------------|-----------------|
|-----------------|-------------|-----------------|-----------------|
|-0---------------|-------------|-----------------|---------6-------|
|-----------------|-------------|-----------------|-4---------------|

|-----------------|-----------------|-----------------|-----------------||
|-----------------|-----------------|-----------------|-----------------||
|-----------------|-----------------|-----------------|-----------------||
|-----------------|-----------------|-----------------|-----------------||
|---------6-------|---------6-------|-8888888877777777|-4444444455555555||
|-4---------------|-4---------------|-----------------|-----------------||

|-----------------|-----------------|-----------------|-----------------|
|-----------------|-----------------|-----------------|-----------------|
|-----------------|-----------------|-----------------|-----------------|
|-----------------|-----------------|-----------------|-----------------|
|---------66666666|---------66666666|---------66666666|-8888888877777777|
|-44444444--------|-44444444--------|-44444444--------|-----------------|

|-----------------|-----------------|-----------------|-----------------|
|-----------------|-----------------|-----------------|-----------------|
|-----------------|-----------------|-----------------|-----------------|
|-----------------|-----------------|-----------------|-----------------|
|-4444444455555555|---------66666666|---------66666666|---------66666666|
|-----------------|-44444444--------|-44444444--------|-44444444--------|

|-----------------|-----------------|-----------------|-----------------|
|-----------------|-----------------|-----------------|-----------------|
|-----------------|-----------------|-----------------|-----------------|
|-----------------|-----------------|-----------------|-----------------|
|-8888888877777777|-4444444455555555|---------66666666|---------66666666|
|-----------------|-----------------|-44444444--------|-44444444--------|

|-----------------|-----------------|-----------------||
|-----------------|-----------------|-----------------||
|-----------------|-----------------|-----------------||
|-----------------|-----------------|-----------------||
|---------66666666|-8888888877777777|-5555555555555555||
|-44444444--------|-----------------|-----------------||

|-----------------|-----------------|-----------------|-----------------|
|-----------------|-----------------|-----------------|-----------------|
|-----------------|-----------------|-----------------|-----------------|
|-----------------|-----------------|-----------------|-----------------|
|-4---------------|(4)--------------|-5---------------|(5)--------------|
|-----------------|-----------------|-----------------|-----------------|

|-----------------|-----------------|-----------------|-----------------||
|-----------------|-----------------|-----------------|-----------------||
|-----------------|-----------------|-----------------|-----------------||
|-----------------|-----------------|-----------------|-----------------||
|-4---------------|(4)--------------|-5---------------|(5)--------------||
|-----------------|-----------------|-----------------|-----------------||

 guitar solo
|-----------------|-----------------|-----------------|-----------------|
|-----------------|-----------------|-----------------|-----------------|
|-----------------|-----------------|-----------------|-----------------|
|-----------------|---------55555555|-7777777777777777|-7777777777777777|
|-5555555577777777|-88888888--------|-----------------|-----------------|
|-----------------|-----------------|-----------------|-----------------|

|-----------------|-----------------|-----------------|-----------------||
|-----------------|-----------------|-----------------|-----------------||
|-----------------|-----------------|-----------------|-----------------||
|-----------------|---------55555555|-7777777777777777|-7777777777777777||
|-5555555577777777|-88888888--------|-----------------|-----------------||
|-----------------|-----------------|-----------------|-----------------||

|-----------------|-----------------|-----------------|-----------------|
|-----------------|-----------------|-----------------|-----------------|
|-----------------|-----------------|-----------------|-----------------|
|-----------------|-----------------|-----------------|-----------------|
|-5555555555555555|-5555555555555555|-6666666666666666|-6666666666666666|
|-----------------|-----------------|-----------------|-----------------|

|-----------------|-----------------|-----------------|-----------------||
|-----------------|-----------------|-----------------|-----------------||
|-----------------|-----------------|-----------------|-----------------||
|-----------------|-----------------|-----------------|-----------------||
|-5555555555555555|-5555555555555555|-6666666666666666|-6666666666666666||
|-----------------|-----------------|-----------------|-----------------||

|-----------------|-----------------|-----------------|-----------------|
|-----------------|-----------------|-----------------|-----------------|
|-----------------|-----------------|-----------------|-----------------|
|-----------------|-----------------|-----------------|-----------------|
|-----------------|-----------------|-----------------|-----------------|
|-0000000000000000|-0000000000000000|-0000000000000000|-0000000000000000|

|-----------------|-----------------|-----------------|-----------------||
|-----------------|-----------------|-----------------|-----------------||
|-----------------|-----------------|-----------------|-----------------||
|-----------------|-----------------|-----------------|-----------------||
|-----------------|-----------------|-----------------|-----------------||
|-0000000000000000|-0000000000000000|-0000000000000000|-0000000000000000||

|-----------------|-----------------|-----------------|-----------------|
|-----------------|-----------------|-----------------|-----------------|
|-----------------|-----------------|-----------------|-----------------|
|-----------------|-----------------|-----------------|-----------------|
|-0000000000000000|-0000000000000000|-4444444444444444|-4444444444444444|
|-----------------|-----------------|-----------------|-----------------|

|-----------------|-----------------|-----------------|-----------------||
|-----------------|-----------------|-----------------|-----------------||
|-----------------|-----------------|-----------------|-----------------||
|-----------------|-----------------|-----------------|-----------------||
|-0000000000000000|-0000000000000000|-4444444444444444|-4444444444444444||
|-----------------|-----------------|-----------------|-----------------||

|-----------------|-----------------|-----------------|-----------------|
|-----------------|-----------------|-----------------|-----------------|
|-----------------|-----------------|-----------------|-----------------|
|-----------------|-----------------|-----------------|-----------------|
|-----------------|-----------------|-----------------|-----------------|
|-0000000000000000|-0000000000000000|-0000000000000000|-0000000000000000|

|-----------------|-----------------|-----------------|-----------------||
|-----------------|-----------------|-----------------|-----------------||
|-----------------|-----------------|-----------------|-----------------||
|-----------------|-----------------|-----------------|-----------------||
|-----------------|-----------------|-----------------|-----------------||
|-0000000000000000|-0000000000000000|-0000000000000000|-0000000000000000||

 184 bpm
|-----------------|-----------------|-----------------|-----------------|
|-----------------|-----------------|-----------------|-----------------|
|-----------------|-----------------|-----------------|-----------------|
|-----------------|-----------------|-----------------|-----------------|
|-----------------|-----------------|-----------------|-----------------|
|-0---------------|(0)--------------|-1---------------|(1)--------------|

|-----------------|-----------------|-----------------|-----------------|
|-----------------|-----------------|-----------------|-----------------|
|-----------------|-----------------|-----------------|-----------------|
|-----------------|-----------------|-----------------|-----------------|
|-----------------|-----------------|-----------------|-----------------|
|-4---------------|(4)--------------|-1---------------|(1)--------------|

|-----------------|-----------------|-----------------|-----------------|
|-----------------|-----------------|-----------------|-----------------|
|-----------------|-----------------|-----------------|-----------------|
|-----------------|-----------------|-----------------|-----------------|
|-----------------|-----------------|-----------------|-----------------|
|-0---------------|(0)--------------|-1---------------|(1)--------------|

|-----------------|-----------------|-----------------|-----------------|
|-----------------|-----------------|-----------------|-----------------|
|-----------------|-----------------|-----------------|-----------------|
|-----------------|-----------------|-----------------|-----------------|
|-----------------|-----------------|-----------------|-----------------|
|-4---------------|(4)--------------|-1---------------|(1)--------------|

|-----------------||
|-----------------||
|-----------------||
|-----------------||
|-----------------||
|-0---------------||

 verse 4
|-----------------|-----------------|-----------------|-----------------|
|-----------------|-----------------|-----------------|-----------------|
|-----------------|-----------------|-----------------|-----------------|
|-----------------|-----------------|-----------------|-----------------|
|-----------------|-----------------|-----------------|-----------------|
|-0-0-0-0-000-0-0-|-000-0-0-1-1-1-1-|-0-0-0-0-000-0-0-|-000-0-0-1-1-1-1-|

|-----------------|-----------------|-----------------|-----------------||
|-----------------|-----------------|-----------------|-----------------||
|-----------------|-----------------|-----------------|-----------------||
|-----------------|-----------------|-----------------|-----------------||
|-----------------|-----------------|-----------------|-----------------||
|-0-0-0-0-000-0-0-|-000-0-0-1-1-1-1-|-0-0-0-0-000-0-0-|-000-0-0-1-1-1-1-||

|-----------------|-----------------|-----------------|-----------------|
|-----------------|-----------------|-----------------|-----------------|
|-----------------|-----------------|-----------------|-----------------|
|-----------------|-----------------|-----------------|-----------------|
|-----------------|-----------------|-----------------|-----------------|
|-0-0-00000-0-0000|-0-0-000011111-1-|-0-0-00000-0-0000|-0-0-000011111-1-|

|-----------------|-----------------|-----------------|-----------------||
|-----------------|-----------------|-----------------|-----------------||
|-----------------|-----------------|-----------------|-----------------||
|-----------------|-----------------|-----------------|-----------------||
|-----------------|-----------------|-----------------|-----------------||
|-0-0-00000-0-0000|-0-0-000011111-1-|-0-0-00000-0-0000|-0-0-000011111-1-||

 232 bpm
|-----------------|-----------------|-----------------|-----------------|
|-----------------|-----------------|-----------------|-----------------|
|-----------------|-----------------|-----------------|-----------------|
|-----------------|-----------------|-----------------|-----------------|
|-----------------|-----------------|-----------------|-----------------|
|-0---------------|-----------------|-----------------|---------3---3---|

|-----------------|-----------------|-----------------|-----------------|
|-----------------|-----------------|-----------------|-----------------|
|-----------------|-----------------|-----------------|-----------------|
|-----------------|-----------------|-----------------|-----------------|
|-----------------|-4---------------|-4---------------|-4---------------|
|-1---0---00000000|-----000000000000|-----000000000000|-----00003---3---|

|-----------------|-----------------|-----------------|-----------------|
|-----------------|-----------------|-----------------|-----------------|
|-----------------|-----------------|-----------------|-----------------|
|-----------------|-----------------|-----------------|-----------------|
|-----------------|-4---------------|-4---------------|-4---------------|
|-1---0---00000000|-----000000000000|-----000000000000|-----00003---3---|

|-----------------|-----------------|-----------------|-----------------||
|-----------------|-----------------|-----------------|-----------------||
|-----------------|-----------------|-----------------|-----------------||
|-----------------|-----------------|-----------------|-----------------||
|-----------------|-4---------------|-4---------------|-4---------------||
|-1---0---00000000|-----000000000000|-----000000000000|-----00003---3---||

|-----------------|-----------------|-----------------|-----------------|
|-----------------|-----------------|-----------------|-----------------|
|-----------------|-----------------|-----------------|-----------------|
|-----------------|-----------------|-----------------|-----------------|
|-----------------|-11111111--------|-----------------|-11111111--------|
|-2222222222222222|---------11111111|-2222222222222222|---------11111111|

|-----------------|-----------------|-----------------|-----------------|
|-----------------|-----------------|-----------------|-----------------|
|-----------------|-----------------|-----------------|-----------------|
|-----------------|-----------------|-----------------|-----------------|
|-----------------|-11111111--------|-----------------|-11111111--------|
|-2222222222222222|---------11111111|-2222222222222222|---------11111111|

|-----------------|-----------------|-----------------|-----------------|
|-----------------|-----------------|-----------------|-----------------|
|-----------------|-----------------|-----------------|-----------------|
|-----------------|-----------------|-----------------|-----------------|
|-----------------|-11111111--------|-----------------|-11111111--------|
|-2222222222222222|---------11111111|-2222222222222222|---------11111111|

|-----------------|-----------------|-----------------|-----------------||
|-----------------|-----------------|-----------------|-----------------||
|-----------------|-----------------|-----------------|-----------------||
|-----------------|-----------------|-----------------|-----------------||
|-----------------|-11111111--------|-----------------|-11111111--------||
|-2222222222222222|---------11111111|-2222222222222222|---------11111111||

|-----------------||
|-----------------||
|-----------------||
|-----------------||
|-----------------||
|-0---------------||

|-----------------|-----------------|-----------------|-----------------|
|-----------------|-----------------|-----------------|-----------------|
|-----------------|-----------------|-----------------|-----------------|
|-----------------|-----------------|-----------------|-----------------|
|-----------------|-----------------|-----------------|-----------------|
|-0---000000000000|-4---4-0-1---1-0-|-0---000000000000|-4---4-0-1---1-0-|

|-----------------|-----------------|-----------------|-----------------||
|-----------------|-----------------|-----------------|-----------------||
|-----------------|-----------------|-----------------|-----------------||
|-----------------|-----------------|-----------------|-----------------||
|-----------------|-----------------|-----------------|-----------------||
|-0---000000000000|-4---4-0-1---1-0-|-0---000000000000|-4---4-0-1---1-0-||

|-----------------|-----------------|-----------------|-----------------|
|-----------------|-----------------|-----------------|-----------------|
|-----------------|-----------------|-----------------|-----------------|
|-----------------|-----------------|-----------------|-----------------|
|-----------------|-----------------|-----------------|-----------------|
|-0---000000000000|-4---4-0-1---1-0-|-0---000000000000|-4---4-0-1---1-0-|

|-----------------|-----------------|-----------------|-----------------||
|-----------------|-----------------|-----------------|-----------------||
|-----------------|-----------------|-----------------|-----------------||
|-----------------|-----------------|-----------------|-----------------||
|-----------------|-----------------|-----------------|-----------------||
|-0---000000000000|-4---4-0-1---1-0-|-0---000000000000|-4---4-0-1---1-0-||

|-----------------|-----------------|-----------------|-----------------|
|-----------------|-----------------|-----------------|-----------------|
|-----------------|-----------------|-----------------|-----------------|
|-----------------|-----------------|-----------------|-----------------|
|-----------------|-----------------|-----------------|-----------------|
|-0---000000000000|-4---4-0-1---1-0-|-0---000000000000|-4---4-0-1---1-0-|

|-----------------|-----------------|-----------------|-----------------|
|-----------------|-----------------|-----------------|-----------------|
|-----------------|-----------------|-----------------|-----------------|
|-----------------|-----------------|-----------------|-----------------|
|-----------------|-----------------|-----------------|-----------------|
|-0---000000000000|-4---4-0-1---1-0-|-0---000000000000|-4---4-0-1---1-0-|

                                                              repeat & fade
|-----------------|-----------------|-----------------|-----------------|
|-----------------|-----------------|-----------------|-----------------|
|-----------------|-----------------|-----------------|-----------------|
|-----------------|-----------------|-----------------|-----------------|
|-----------------|-----------------|-----------------|-----------------|


Important: The song above is NOT stored on the Chordie server. The original song is hosted at www.xguitar.com. Chordie works as a search engine and provides on-the-fly formatting. Chordie does not index songs against artists'/composers' will. To remove this song please click here.

This song is displayed as text-only. Transposing and tuning is only available for chordpro-songs.

Login - add to songbook

Rating click stars to rate

Layout
Accuracy

SHARE PAGE  




You need to log in to post comments