Tits on a Boar

Sevendust


Artist: Sevendust Song: T.O.A.B Album: Animosity Tabbed by: Jonathan Bissonnette (Hoju_10@hotmail.com)
Legend
pm.: Palm Mute \: Slide Back *PH: Pinch Harmonic h: Hammer-on ^fb: Full Bend p: Pull-off ^hb: Half Bend ~: Let Note Ring (Vibrato) /: Slide Forward (): Ghost Note
Tuning: Drop B (B F# B E G# C#)
Intro
Gtr.1 and 2 |-------------------------------| |-------------------------------| |-------------------------------| |-------------------------------| |-------------------------------| |-5p4-4--5p4-4-4--5p4-4-5p4-4-4-|x3
|---------------------------| |----------------0----------| |----------------0----------| |----------------4----------| |----------------4-0-0-0-4--| |-5p4-4--5p4-4-0-4-0-0-0-4--|
Verse 1 and 2
|-------------| |-------------| |-------------| |-------------| |-------------| |-4*\\\\\\\2*-|x8 A.H w/tremelo
Fill(At about the end of the fourth time)
|-----| |-----| |-----| |-2-1-| |-2-1-| |-2-1-|
|------------------------| |------------------------| |------------------------| |-4-4-4-4-4-4\(3)\2--2-1-| |-4-4-4-4-4-4\(3)\2--2-1-| |-4-4-4-4-4-4\(3)\2--2-1-| pm...............
Pre-chorus
|----------------------| |----------------------| |----------------------| |-0--0-0-0-0-0--0--0-0-| |-0--0-0-0-0-0--0--0-0-| |-0--0-0-0-0-0--0--0-0-| p.m......... . ...
chorus
|-------------------------------| |-------------------------------| |-------------------------------| |-------------------------------| |-------------------------------| |-5p4-4--5p4-4-4--5p4-4-5p4-4-4-|x3
|--------------------------| |--------------------------| |--------------------------| |--4p0-0-0--4p0-0-0--4p0-0-| |--4p0-0-0--4p0-0-0--4p0-0-| |--4p0-0-0--4p0-0-0--4p0-0-|
Bridge
|--------------------| |--------------------| |--------------------| |--------------------| |--------------------| |-0-0--0--0-0-0--0-0-|
Gtr.1 |--------------------| |--------------------| |--------------------| |-0-0--0--0-0-0--0-0-| |-0-0--0--0-0-0--0-0-| |-0-0--0--0-0-0--0-0-| | | |Gtr.2 | |--------------------| |-7-7-7-7-7-7-7-7-7--| |-x-x-x-x-x-x-x-x-x--| |-4-4-4-4-4-4-4-4-4--| |--------------------| |--------------------| tremelo...........
Gtr.1 |--------------------| |--------------------| |--------------------| |-0-0--0--0-0-0--0-0-| |-0-0--0--0-0-0--0-0-| |-0-0--0--0-0-0--0-0-| | | |Gtr.2 | |--------------------| |-9-9-9-9-9-9-9-9-9--| |-x-x-x-x-x-x-x-x-x--| |-6-6-6-6-6-6-6-6-6--| |--------------------| |--------------------| tremelo..........
Verse 3
|-------------| |-------------| |-------------| |-------------| |-------------| |-4*\\\\\\\2*-|x4 A.H w/tremelo
Fill(At about the fourth time)
|-----| |-----| |-----| |-2-1-| |-2-1-| |-2-1-|
Gtr.1 |----------------------| |----------------------| |----------------------| |----------------------| |-x-x--x-x-------------| |-x-x--x-x---0-1^------| | | |Gtr.2 | |----------------------| |----------------------| |----------------------| |------------------2-1-| |------------------2-1-| |-4*\\\\\\\2*------2-1-| A.H w/tremelo
Outro - Same as bridge
Ends on
|-----| |-----| |-----| |-2-1-| |-2-1-| |-2-1-|












variations - click chord images
Transpose chords:
Tuning:
Cool service:
View: Size:
A  A  A
Rating:
Layout:
  • Currently 0/5 Stars.
  • 1
  • 2
  • 3
  • 4
  • 5
 
Accuracy:
  • Currently 0/5 Stars.
  • 1
  • 2
  • 3
  • 4
  • 5
 
click stars to rate
Chordie recommends:
Learn how to play guitar at JamPlay.com
Songbook:
Login to add this song to your songbook
Support the artist
Preview/buy this song
MSN Music
Why this non-profit ad?

 
login to add comments/video/corrections