Chordie logo


Xmas Day   Sevendust



Xmas Day
Sevendust
Animosity
Tabbed by crazytom
deathtone@wanadoo.fr

Standard tuning

Intro : gtr1 :
------------------------------------------------------------------------
------------------------------------------------------------------------
------------------------------------------------------------------------
---x-11-x-10-x-11-x-4-x-6-x-7-x-6-x-7------x-11-x-10-x-11-x-4-x-6-x-7---
---x-11-x-10-x-11-x-4-x-6-x-7-x-6-x-7------x-11-x-10-x-11-x-4-x-6-x-7---
---x-9--x-8--x-9--x-2-x-4-x-5-x-4-x-5------x-9--x-8--x-9--x-2-x-4-x-5---

gtr 2 :
-------------------------------------|---------2---
-----2---2---2---2---2---2---2---2---|-----2-------
-------------------------------------|-------------
---4---4---4---4---4---4---4---4-----|---4---4-----
-------------------------------------|-------------
-------------------------------------|-------------

Verse :
-------------------------------------------------------5---
---------2-----------2-------------2----------2------------
-----2-----------2-----2-------2----------2-1------2-1-----
---4---4-----4-3---3-------3-2---3------4--------4---------
-----------------------------------------------------------
-----------------------------------------------------------

-----------------------------------------------------
---------2-----------2-------------2-----------------
-----2-----------2-----2-------2-------------4-2-----
---4---4-----4-3---3-------3-2---3---------0---------
-----------------------------------------2-----------
-----------------------------------------------------

Pre-chorus :
------------------------------------------
---------2--------2-----------------------
-----1-2------1-2-------1-2-1-----1-2-1---
---4--------4---------2---------2---------
------------------------------------------
------------------------------------------

Chorus :
-----------------------------------------------------------
-----------------------------------------------------------
-----------------------------------------------------------
---4-4-4-4-4-4---6-6-6-6-6-6---8-8-8-8-8-8---9-9-9-9-9-9---
---4-4-4-4-4-4---6-6-6-6-6-6---8-8-8-8-8-8---9-9-9-9-9-9---
---2-2-2-2-2-2---4-4-4-4-4-4---6-6-6-6-6-6---7-7-7-7-7-7---

Solo :
----------------------------------------------------------------
----------------------------------------------------------------
------------------4---4-----------------------6---6---6---6-4---
---4-4/6-7\\6-9\\6----6---6-4-6----4/6-7\\6-9\\6----6---6---6-------
----------------------------------------------------------------
----------------------------------------------------------------

--------------------------------------------------------------------
--------------------------------------------------------------------
-----------------------------------------------------------4-6-6----
---4-4/6\\4---4-6-6-7-7/8\\7-7-6-7-6-4-6---4-4/6\\4---4-6-7-7----------
-----------4-------------------------------------4------------------
--------------------------------------------------------------------

Outro :
---------------------------------------------------
---------2-------------2-------------2-------------
-----2-----2-------2-----2-------2-----2-------6---
---4---4-------4-3---3-------3-2---3---------5-----
-------------------------------------------6-------


Important: The song above is NOT stored on the Chordie server. The original song is hosted at www.xguitar.com. Chordie works as a search engine and provides on-the-fly formatting. Chordie does not index songs against artists/composers will. To remove this song please click here.

This song is displayed as text-only. Transposing and tuning is only available for chordpro-songs.

Login - add to songbook

Rating click stars to rate

Layout
Accuracy

SHARE PAGE  




You need to log in to post comments