Chordie logo


A Fire in Babylon    Shadows Fall



Band Shadows Fall
song A fire in Babylon
tabbed by SinisterCircle
tuning standard D
D,G,C,F,A,D
note* the intro im sure is 99% right.
I haven't figured out none of the solos



ph-pinch harmoinic
()ghost note
p-pull off
m- plam mute
Intro: These chords are whole notes
 Gtr 1 Matthew Bachand
|----------------------------------|-----------|-------------
|----------------------------------|-----------|--------------
|----------------------------------|-----------|--------------
|-2--------------------------------|-----------|---------------
|-0--------------------------------|--3--------|--5-----------
|----------------------------------|--1--------|--3------------
 Gtr 2 Jonathan Donais
        ph                ph             ph              ph
|-------- --------|----------------|-------------|--------------------------
|---5-------------|--5-------------|--5----------|---5----------------------
|-2---4-5--4-7-5--|2---4-5--4-7-5--|0---2-4-5----|-0--2-2-4-5--------------
|-----------------|----------------|-------------|--------------------------
|-----------------|----------------|-------------|-------------------------


|-----------------------------------|-----------|-------------------------
|-----------------------------------|-----------|------------------------
|-----------------------------------|-----------|------------------------
|2----------------------------------|-----------|-------------------------
|0----------------------------------|-----------|------------------------
|-----------------------------------|-3---------|5-----------------------
|-----------------------------------|-1---------|3------------------------

   ph            ph                       ph              ph
|------------------------------------|-----------|------------------------
|--5--------------5------------------|--5--------|---5--------------------
|2--4-5--4-7-5--2--4-5--4-7-5--------|0--2-4--5--|-0---2-2-4-5------------
|------------------------------------|-----------|------------------------
|------------------------------------|-----------|------------------------
|------------------------------------|-----------|------------------------

|------------------------------------|------------|-----------------------
|------------------------------------|------------|-----------------------
|--9-----------------9---------------|--9---------|-----------------------
|7---9-10-9-12-10--7---9-10-9-12-10--|0--7-9-10---|0-7-7-9-10-----------
|------------------------------------|------------|-----------------------
|------------------------------------|------------|----------------------
 play twice v
|----------------------------------------------------------------------
|----------------------------------------------------------------------
|----------------------------------------------------------------------
|-2-2--------2------------------------------------------------------------
|-0-0--------0--2-3-2-0---3---------------5--------------------------------------
|-------------------------1----2-3-2-0----3----------------------------

|----------------------------------------------------------------------
|--5--------------5---------------5-----------5------------------------
|2--4-5--4-7-5--2---4-5--4-7-5--0---2-4-5---0---2-2-4-5-7--------------
|----------------------------------------------------------------------
|----------------------------------------------------------------------
|----------------------------------------------------------------------

|---------------------------------------------------------------------
|----------------------------------------------------------------------
|--9-----------------9-------------------9------------9-------------------
|7---9-10--9-12-10--7---9-10--9-12-10--0---7-9--10--0---7-7-9--10-------------
|-------------------------------------------------------------------------
|--------------------------------------------------------------------------




|----------------------------------------------------------------------
|----------------------------------------------------------------------
|----------------------------------------------------------------------
|----------9---7---5--------------------------------------------------
|7----9----7---5---3---5----7-----------------------------------------
|5----7----------------3----5------------------------------------------

Don't know the solo

Verse
Guitar 1: 2x the the 3 time gtr 2 comes in
----------------------------------------------------------------
----------------------------------------------------------------
----------------------------------------------------------------
----7---7------5---5--------------3---3------5---5--------------
----------8----------7-8----------------5----------7-8---8-7----
-00---0-----00---0-------00-000-0---0-----00---0-------0--------
 ..   .     ..   .       .. ... .   .     ..   .       .

Guitar 2:
------------------------------------------------------------------------------
------------------------------------------------------------------------------
------------------------------------------------------------------------------
----14---14--------12---12----------------10---10-------12---12---------------
------------15-------------14-15------------------12------------14-15---15-14-
-00----0--------00----0----------00-000-0----0-------00----0----------0-------
..    .        ..    .          .. ... .    .       ..    .          .

Dont know the rest

Interlude
note* thiers three guitar parts to this i only figure out the lead and the harmonized part

|-----------------------------------------------------6-5---5-6-5--3-|
|-3-5-5-5-5-5-6-6-6-6-6-6--3-3--5-5-5-5--6-6--6-5-6-3----------------|  < play 1x
|--------------------------------------------------------------------|
|-0-------------------------------------------------0----------------|
|--------------------------------------------------------------------|
|--------------------------------------------------------------------|

|--------------------------------------------------6-5--5-6-3--------|
|--3-5-5-5-5--6-6-6-5-6--3-3-5-5-5-5--6-6-6-5-6-3--------------------|
|--------------------------------------------------------------------|  < play 1x this is harmonized
|--0--------------------------------------------0--------------------|
|--------------------------------------------------------------------|
|--------------------------------------------------------------------|

|--------------------------------------------------------------------|
|-------------------------------------------------11-10--10-11-9-----|
|---9-9-9-9--10-10-10-9----------------------------------------------|
|--------------------------------------------------------------------|
|--------------------------------------------------------------------|
|--------------------------------------------------------------------|

               play 2x V                        play 1X v

|-------6-5-0--0/-0--------6-5-0--0-/-0--|------6-5-0--0---0--0/-0----|
|-5-3-5--------5/-3--5-3-5--------3/--5--|5-3-5-------5--3----5/-3----|
|----------------------------------------|----------------------------|gtr 1
|----------------------------------------|----------------------------|
|----------------------------------------|----------------------------|
|----------------------------------------|----------------------------|
|---------------------------------------------|------------------------------|
|---------------------------------------------|------------------------------|gtr2
|---------------------------------------------|------------------------------|
|-7---------3----------5---------5---7--3-----|-7-7-7-7--7-7-7-7-7-7-7-7-7---|
|-5---------1----------3---------4---5--1-3---|-5-5-5-5--5-5-5-5-5-5-5-5-5---|
------------------------------------------1---|-m-m-m-m--m-m-m-m-m-m-m-m-m---|
                                                     gallop ^
break down before the solo

|------------------------------------------------------------------|---------------|
|------------------------------------------------------------------|---------------|
|------------------------------------------------------------------|---------------|
|-7-7-------------7--3-3-----------3--5-5---------5--5-5---------5-|----------5----|
|-5-5-5-5-5-5-5-5-5--1-1-1-1-1-1-1-1--3-3-3-3-3-3-3--4-4-4-4-4-4-4-|-3-3-3-3--3-3-3|


Important: The song above is NOT stored on the Chordie server. The original song is hosted at www.xguitar.com. Chordie works as a search engine and provides on-the-fly formatting. Chordie does not index songs against artists/composers will. To remove this song please click here.

This song is displayed as text-only. Transposing and tuning is only available for chordpro-songs.

Login - add to songbook

Rating click stars to rate

Layout
Accuracy

SHARE PAGE  




You need to log in to post comments