Guitar Tabs, Chords and Lyrics


Casting Shade    Shadows Fall



Casting Shade
Band: Shadows Fall
Special thanks to Nick for teaching me how to play this song

Tuning: EADGBe
2 guitars arranged for one

1-------------------------------------
2-------------------------------------
3------0-----------0------------------
4-----2-----2-----2----2-------------
5----2-----2-2---2----2-2-----------
6---0-----0-----0----0--------------

1----------------------------
2----------------------------
3----------------------------
4-------0----0----4-2-0-----
5------0-0----0------------
6---1h2----2---2------------

1-----------------------3--------------------------------
2-----1-0-1-------1-0-1-1-1----0-0---0--0h1--------------
3-----2-2-2-------0-0-0-0--0---0--0--0-----2-------------
4-----2-2-2-------2-2-2-2------5---5-3------3------------
5---0-0-0-0-0-2-3-3-3-3-3------5-----3-------3----------
6----------------------------3-3-----1-1--------------------

1---2---0--------------------------2---3---2------------------
2----0---0---3/5-5----3---0---------3---3---3---------------
3-----0---0-------0----0---4-4/2-----2---2---2-------------
4------------------0----0----0---0----------------------
5----------------3----3---------------------------------
6---0---0------------------------------------------------



Important: The song above is NOT stored on the Chordie server. The original song is hosted at www.xguitar.com. Chordie works as a search engine and provides on-the-fly formatting. Chordie does not index songs against artists'/composers' will. To remove this song please click here.

This song is displayed as text-only. Transposing and tuning is only available for chordpro-songs.

Login - add to songbook

Rating click stars to rate

Layout
Accuracy

SHARE PAGE  




You need to log in to post comments