Guitar Tabs, Chords and Lyrics


Destroyer of Senses    Shadows Fall








Shadows Fall
Destoyer of Senses
Drop D down 1 step
tabbed by puppetz_85
for more tabs http://go.to/tab_zone

Intro/Verse riff
|---------------------------------|---------------------------------|
|---------------------------------|---------------------------------|
|---------------------------------|---------------------------------|
|-------------3-----7-5-----------|-------------3-----7-5-----------|
|-0-1-0-5-3-0-1-----5-3-0-3/5-5/6-|-0-1-0-5-3-0-1-----5-3-------3-5-|
|-0-1-0-5-3-0---3-0-----0-3/5-5/6-|-0-1-0-5-3-0---3-0-----0-3-5-----|

Chorus
           p.m...... a.h.    p.m.....
|--------------------|-------------------|
|--------------------|-------------------|
|--------------------|-------------------|
|--------------------|-------------------|
|-0-6-5--0-0-0-3-5-5-|-5~6-5-0-0-0-1-5-6-|
|-0-6-5--0-0-0-3-5-5-|---6-5-0-0-0-1-5-6-|

Play over bass riff
                 p.s.
|------------0-------|
|------------0-------|
|------------0-------|
|-0---(0)--------x\\--|
|-0---(0)--------x\\--|
|-0---(0)--------x\\--|

Bridge
p.m......................................................
|-------------------------------|------------------------------|
|-------------------------------|------------------------------|
|-------------------------------|------------------------------|
|-------------------------------|------------------------------|
|-5-3-0-5-3-0-5-3-0-5-3-0-5/6-6-|-5-3-0-5-3-0-5-3-0-5-3-0-6-\\1-|
|-5-3-0-5-3-0-5-3-0-5-3-0-5/6-6-|-5-3-0-5-3-0-5-3-0-5-3-0-6-\\1-|

|-------------------------------|------------------------------|
|-------------------------------|------------------------------|
|-------------------------------|------------------------------|
|-------------------------------|------------------------------|
|-5-3-0-5-3-0-5-3-0-5-3-0-5/6-6-|-5-3-0-5-3-0-5-3-0-5-3-0-6-\\1-|
|-5-3-0-5-3-0-5-3-0-5-3-0-5/6-6-|-5-3-0-5-3-0-5-3-0-5-3-0-6-\\1-|

Ending riff
|--------------------------|--------------------------|
|--------------------------|--------------------------|
|--------------------------|--------------------------|
|-12-11-10-----------------|-12-11-10-----------------|
|----------12-11-10--------|----------12-11-10--------|
|-------------------10-12--|-------------------10-12--|
|
|--------------------------|--------------------------|
|--------------------------|--------------------------|
|--------------------------|--------------------------|
|-5--4--3------------------|-5--4--3------------------|
|----------5--4--3---------|----------5--4--3---------|
|-------------------3--5---|-------------------3--5---|

       p.m....
|-----------------|
|-----------------|
|-----------------|
|-----------------|
|-0-6-5-0-0-0-3-5-|


Important: The song above is NOT stored on the Chordie server. The original song is hosted at www.xguitar.com. Chordie works as a search engine and provides on-the-fly formatting. Chordie does not index songs against artists'/composers' will. To remove this song please click here.

This song is displayed as text-only. Transposing and tuning is only available for chordpro-songs.

Login - add to songbook

Rating click stars to rate

Layout
Accuracy

SHARE PAGE  




You need to log in to post comments