Guitar Tabs, Chords and Lyrics


Prelude to Disaster    Shadows Fall



Shadows Fall
Prelude to Disaster

E-----------------------------------------------------------------------------
B-------------------------9---10----------------------------------------------
G------------------11-----------------------11---------------10---------------
D-----------11---------11----------------12-----12--------11-------11---------
A-------9------9----------------------12---------------11---------------------
E---------------------------------10-----------------9------------------------

E-----------------------------------------------------------------------------
B------------10---------------------------------------------------------------
G--11--9-11-----12-11---------------------------------------------------------
D----------------------12--11-------------------------------------------------
A-----------------------------------------------------------------------------
E-----------------------------------------------------------------------------




Important: The song above is NOT stored on the Chordie server. The original song is hosted at www.xguitar.com. Chordie works as a search engine and provides on-the-fly formatting. Chordie does not index songs against artists'/composers' will. To remove this song please click here.

This song is displayed as text-only. Transposing and tuning is only available for chordpro-songs.

Login - add to songbook

Rating click stars to rate

Layout
Accuracy

SHARE PAGE  




You need to log in to post comments