Guitar Tabs, Chords and Lyrics


Stepping Outside the Circle    Shadows Fall



Shadows Fall - Stepping Outside The Circle
Submitted By: Sqweeky
EMail: Blindside831@aol.com
Album: The Art Of Balance (2002, re-released 2003)
Tabbed by: systemaregods (Ashley Jackson)
e-mail: fivejacko@yahoo.co.uk

Tuning: (low to high, C G C F A D)

. = palm mute
#cutline# = repeat this part as instructed
() = hold note/ghost note
t = tremlo pick
p = pull off


Intro: 	x 1

D-------------------------------
A ------------------------------
F ------------------------------
C ------------------------------
G -5--------6—5----5-8-8--------
C -5--------6—5----5-8-8--------
                       t

Then

D -------------------------------------
A -------------------------------------
F -------------------------------------
C -------------------------------------
G -6-5-5----6-5-5----6-5-5----5-8----8-
C -6-5-5----6-5-5----6-5-5----5-8----8-	x 3
       t        t        t           t  	

4th time play this once:

D --------------------------------------
A --------------------------------------
F --------------------------------------
C --------------------------------------
G -6-5-5----6-5-5----6-5-5----5-6-5-4-5-			
C -6-5-5----6-5-5----6-5-5----5-6-5-4-5-
       t        t        t    . . . . .

Intro cont. Guitar 1

D --------------------------------------------	x 3
A --------------------------------------------
F --------------------------------------------
C --------------------------------------------
G -5—5-5-4-5-5-5-5-5-6-6-5-5—5-5-4-5-5-8—-6-5-
C -5—5-5-4-5-5-5-5-5-6-6-5-5—5-5-4-5-5-8—-6-5-
             . . . .	                  (4th time hold fret 8,
                                          miss the last two out)

Verse 1:

D ----------------------------------------
A ----------------------------------------
F ----------------------------------------
C ----------------------------------------
                         Repeat x 2
Here I go again. . .


4th time play:

D --------------------------------------
A --------------------------------------
F --------------------------------------
C --------------------------------------
G -9-4-3—-10-4-5-10 10----10-9-11-10-10-
C -9-4-3—-10-4-5-10 10----10-9-11-10-10-
	         .        .  .  .  .
A desperate act. . .


Verse part 2:

D -------------------------------------
A -------------------------------------
F -------------------------------------
C -------------------------------------
G -4-3—-9-4-3—-10-9-4-3—-9-4-3—-10-4-5-
C -4-3—-9-4-3—-10-9-4-3—-9-4-3—-10-4-5-
A balance point. . .


Now play:

D -----------------
A -----------------
F -----------------
C -----------------
G -4-3-6-5-4-3-3-2-
C -4-3-6-5-4-3-3-2-
DOWN!


Fill 1:
				
D –6p56p56p56p5-4p34p34p34p3-
A ---------------------------
F ---------------------------
C ---------------------------
G ---------------------------
C ---------------------------	
My Fear. . .


D -----------------
A -----------------
F -----------------
C -----------------
G -4-3-6-5-4-3-3-2-
C -4-3-6-5-4-3-3-2-
Into this world. . .


Fill 2:

D ---------------
A ---------------
F -2-2-4-4-5-5-6-
C ---------------
G ---------------
C ---------------
Your love for me. . .


Repeat the last 4 parts again.

Bridge:

D ----------------------
A ----------------------
F ----------------------
C ----------------------
G --------8---------8-8-
C -3-5—-6-8—-3-5—-6-8-8-

Chorus:

D ------------------------------------------------------
A ----------------------------------------------7-5-----
F ------------------------------------------------------
C -----------5-555---5-4----------------5-555-----------
G -6----9-10-------6-6-6------6----9-10-------6---------
C -6-6—-9-10-------------3-5—-6—6—-9-10-------------3-5-
     t	      ...	        t         ...
Feel the strain. . .


D -----------------------------------------------------------
A ----------------------------------------------7-5----------
F -----------------------------------------------------------
C -----------5-555---5-4----------------5-555----------------
G -6----9-10-------6-6-6------6----9-10-------6------------8-
C -6-6—-9-10-------------3-5—-6—6—-9-10-------------3-5--6-8-
     t	       ...	        t         ...
Has my faith been. . .


Verse 2: Repeat Verse 1

Repeat Verse part 2

Repeat Verse part 3

Repeat Bridge

Repeat Chorus

Now play:


Fill 3:

D ------------------------
A ------------------------
F ------------------------
C ------------------------
G -(5)----3----(5)----5-4-
C -(5)----3----(5)----5-4-
	              . .

Interlude Before Solo:

D -------------7------	x 2
A -3----2 3-------7-5-
F -2------------------
C --------------------
G --------------------
C --------------------


Backing Guitar For Solo:

D --------------------------------------	x 2
A --------------------------------------
F --------------------------------------
C --------------------------------------
G ------55-555-55-5-5-5-33-333-33-3-3-3-
C -12/--55-555-55-5-5-5-33-333-33-3-3-3-
        ..     ..   .   ..     ..   .

D --------------------------------------	x 2
A --------------------------------------
F --------------------------------------
C -8-88-888—88-8-8-8--------------------
G -6-66-666-66-6-6-6--3-33-333-33-3-3-3-
C --------------------3-33-333-33-3-3-3-
     ..     ..   .      ..     ..   .

D --------------------------------------
A --------------------------------------
F --------------------------------------
C --------------------------------------
G –(5)--------(3)--------(5)--------(3)-
C –(5)--------(3)--------(5)--------(3)-


D --------------------------------------	x 1
A --------------------------------------
F --------------------------------------
C -8-88-888—88-8-8-8--------------------
G -6-66-666-66-6-6-6--3-33-333-33-3-3-3-
C --------------------3-33-333-33-3-3-3-
     ..     ..   .      ..     ..   .

D ----------------------------------------	x 1
A ----------------------------------------
F ----------------------------------------
C -8-88-888—88-8-8-8----------------------
G -6-66-666-66-6-6-6------------------8-8-
C -------------------3-5--6-8--3-5--6-8-8-
     ..     ..   .	


Repeat Chorus:

D ------------------------------------------------------
A ----------------------------------------------7-5-----
F ------------------------------------------------------
C -----------5-555---5-4----------------5-555-----------
G -6----9-10-------6-6-6------6----9-10-------6---------
C -6-6—-9-10-------------3-5--6—6--9-10-------------3-5-
     t	      ...               t         ...


D ------------------------------------------------------
A ----------------------------------------------7-5-----
F ------------------------------------------------------
C -----------5-555---5-4----------------5-555-----------
G -6----9-10-------6-6-6------6----9-10-------6---------
C -6-6—-9-10-------------3-5—-6—6—-9-10-------------3-5-
     t	      ...               t         ...


Outro:

D ----------------------------	x 3
A ----------------------------
F ----------------------------
C ----------------------------
G -6------8------10-------8---
C -6-6----8-8----10-10----8-8-
     t      t        t      t
Digging in deeper. . .


4th time play:

D -----------------------------------
A -----------------------------------
F -----------------------------------
C -----------------------------------
G -6------6-5-6-8-8--9-2-22-1-11-3-2-
C -6-6------------8--9---------------
     t		         ..   ..
The bottom price. . .


Outro end:

D ----------------------------------------------		x 3
A ----------------------------------------------
F ----------------------------------------------
C ----------------------------------------------
G -8-(2)-2-22-1-11-3-2-8-(2)-2-22-1-11-3-2--8-2-
C -8-(2)---------------8-(2)----------------8-2-
           ..   ..             ..   ..      (last time only)



Important: The song above is NOT stored on the Chordie server. The original song is hosted at www.xguitar.com. Chordie works as a search engine and provides on-the-fly formatting. Chordie does not index songs against artists'/composers' will. To remove this song please click here.

This song is displayed as text-only. Transposing and tuning is only available for chordpro-songs.

Login - add to songbook

Rating click stars to rate

Layout
Accuracy

SHARE PAGE  




You need to log in to post comments