Guitar Tabs, Chords and Lyrics


Welcome To The Machine   Shadows Fall

e--------------------------------------------


B------------------------------------------


G------------------------------------------

D-x-x-x-x-x-x-x-x-x-x-x-x-x-x-x-- 2 times
A-x-x-x-x-x-x-x-x-x-x-x-x-x-x-x--
E-x-x-x-x-x-x-x-x-x-x-x-x-x-x-x-- (thats 32 in all, 16x2)
e--------------------------------------------------------------------------------------
B--------------------------------------------------------------------------------------
G--------------------------------------------------------------------------------------
D-------7---------5-------------5h7--------------7------------5-------------7--8/5-----
A-------5---------3-------------------5h7--------5------------3-------------5--6/3----- X2
E--1-1------1-1----------1-1---------------1-1---------1-1----------1-1----------------
e-----2----------------------------3-----
B----3---------------------------5-------
G----0-------------------------3---------
D----0------------------------5----------
A----2----------------------3------------
E----------------------------------------
e-----------------------------------------------------
B-----------------------------------------------------
G-----------------------------------------------------
D-x-x-x-x-x-x-x-x--------x-x-x-x-x-x-x-x-x-x-x-x-x-x-x
A-x-x-x-x-x-x-x-x-8/9/7x-x-x-x-x-x-x-x-x-x-x-x-x-x-x--
E-x-x-x-x-x-x-x-x-8/9/7x-x-x-x-x-x-x-x-x-x-x-x-x-x-x--
You've been in the pipeline filling in time       [Cm7]
[Emadd9]provided with toys and scouting for boys
[C]you bought a guitar to punish your ma
[Emadd9]And you didn't like school, and you know you're nobody's fool
[C]so[Cmaj7] welcome..[Emadd9].. to the[Cmaj7] machine [Em/F#]
repeat riff A

[C]so[Cmaj7] welco[Emadd9]me.... [Cmaj7]to the mac[Em/F#]hine

Riff A again

e---------------------------------------------------------------
B---------------------------------------------------------------
G----11-11-11-11-13---13-13-13-13----15-15-15-15/17-17-17-17-17-
D-----x--x--x-x--x--x--x--x--x--x--x--x--x--x--x--x--x--x--x--x- 2 times w/keybrd between
A-----9--9--9-9--9/11-11-11-11-11/13-13-13-13/15----15-15-15-15-
E---------------------------------------------------------------

Half of this over solo I'll tab when i get around to it
[Em]   [Em/F#]      [Em/G]     [Em/A]     [C/G]    [Esus2]      [Em]   [Em/F#]      [Em/G]     [Em/A]     [C/G]    [Esus2]      [C]  [D6+9]     [C]  [D6+9]     [Em]   [Em/F#]      [Em/G]     [Em/A]     [C/G]    [Esus2]                            
e----------------------------------------------------------------------
B----------------------------------------------------------------------
G---------------------------------------------------------------------
D-x-x-x-x-x-x-x-x--------x-x-x-x-x-x-x-x-x-x-x-x-x-x-x
A-x-x-x-x-x-x-x-x-8/9/7x-x-x-x-x-x-x-x-x-x-x-x-x-x-x
E-x-x-x-x-x-x-x-x-8/9/7x-x-x-x-x-x-x-x-x-x-x-x-x-x-x

then riff A a whole bunch

Important: The song above is NOT stored on the Chordie server. The original song is hosted at www.xguitar.com. Chordie works as a search engine and provides on-the-fly formatting. Chordie does not index songs against artists'/composers' will. To remove this song please click here.

Text color:
Chord color:
Chord grids: 
Font size:    
Page size: 

C C/G Cm7 Cmaj7 D6+9 Em Em/A Em/F# Emadd9 Esus2
variations - click chord images

Login - add to songbook

Transpose chords

Tuning

Rating click stars to rate

Layout
Accuracy

SHARE PAGE  




You need to log in to post comments