Chordie logo


Revel in My Loss    Shadows Fall



if anyone has anymore to add to this even if its not completely correct id really appreciate it
tabbed by Caleb Thomas

-------------------|
-------------------|
-------------------|
-------------------|
-0-232-0-----------|
---------3-1-------|

-------------------|
-------------------|
-------------------|
-----------3-------|
-0-232-0-----------|
----------3--------|


im pretty sure all of it is palm muted and
played pretty fast
there needs to be more in these areas

----------------------------
--------------------
------------------------
---------------------
-------------------------
-------------------------

---------------------------
-----------------------
-----------------------
------------------------
--------------------------
----------------------------

-----------------------------
------------------------------
------------------------------
------------------------------
-------------------------------


Important: The song above is NOT stored on the Chordie server. The original song is hosted at www.xguitar.com. Chordie works as a search engine and provides on-the-fly formatting. Chordie does not index songs against artists/composers will. To remove this song please click here.

This song is displayed as text-only. Transposing and tuning is only available for chordpro-songs.

Login - add to songbook

Rating click stars to rate

Layout
Accuracy

SHARE PAGE  




You need to log in to post comments