Guitar Tabs, Chords and Lyrics


To Ashes    Shadows Fall



Tune 1 step down ( D G C F A d ) *low to high

"  = tremolo picking  p = pull off
tr = trill            / = slide down to note
h  = hammer on        \\ = slide up to note

Riff 1
|--------------------|---------------------------|
|--------------------|---------------------------|
|--------------------|---------------------------|
|-----5-----5-4-5----|---------------------------|  GTRs 1 & 2
|--------------------|-----7-----7-6-------------|
|-000---000----------|-000---000-----8-----------|


Riff 2
"Gray Skies..."
|--------------------|---------------------------|
|--------------------|---------------------------|
|--------------------|---------------------------|
|-----9---9---7h9----|-----7---7p5---------------|  GTR 1
|-7-7---7---7--------|-5-5---5-----7-------------|
|--------------------|---------------------------|

|--------------------|---------------------------|
|--------------------|---------------------------|
|-9------------------|-7-------------------------|
|-9------------------|-7-------------------------|  GTR 2
|-7------------------|-5-------------------------|
|--------------------|---------------------------|

Fill 1
|--------------------|---------------------------|
|--------------------|---------------------------|
|-9------------------|---------------------------|
|-9------------------|---------------------------|
|-7------------------|---------------------------|
|--------------------|---------------------------|

Riff 3
Acoustic             x3

|-0--0-0-0---3--2-2-0|-1-1-1-0--3--2-2-0---------|
|-1--1-1-1---0--0-0-0|-1-1-1-0--0--0-0-0---------|
|-2--2-2-2---0--0-0-0|-2-2-2-0--0--0-0-0---------|
|-2--2-2-2---0--0-0-0|-3-3-3-0--0--0-0-0---------| GTR 1
|-0--0-0-0---2--2-2--|-3-3-3----2--2-2-----------|
|------------3--3-3--|-1-1-1----3--3-2-----------|

Riff 4

|-0--0-0-0---3--2-2-0|-1-1-1-0--3--2-2-0---------|
|-1--1-1-1---0--0-0-0|-1-1-1-0--0--0-0-0---------|
|-2--2-2-2---0--0-0-0|-2-2-2-0--0--0-0-0---------|
|-2--2-2-2---0--0-0-0|-3-3-3-0--0--0-0-0---------| GTR 1
|-0--0-0-0---2--2-2--|-3-3-3----2--2-2-----------|
|------------3--3-3--|-1-1-1----3--3-2-----------|

|------------------------------------------------|
|------------------------------------------------|
|------------------------------------------------|
|-10---9-7---9-10---14-12--------10-12-----------|  GTR 2
|--------------------------12-14-----------------|
|------------------------------------------------|

|------------------------------------------------|
|------------------------------------------------|
|------------------------------------------------|
|-10---9-7---9-10--10-9-7----7h9-----------------|  GTR 2 cont.
|-------------------------10---------------------|
|------------------------------------------------|

|--------------------|---------------------------|
|--------------------|---------------------------|
|--------------------|---------------------------|
|--------------------|---------------------------|  GTR 3 haven't got yet
|--------------------|---------------------------|
|--------------------|---------------------------|

Fill 2
"After all is lost..."
|-0------------------|---------------------------|
|-1------------------|---------------------------|
|-2------------------|---------------------------|
|-2------------------|---------------------------|
|-0------------------|---------------------------|
|--------------------|---------------------------|

Riff 5

|------------------------------------------------|
|------------------------------------------------|
|------------------------------------------------|
|-10"--9"--7"--9"--10"--14"--12"-----------------| GTR 1
|------------------------------------------------|
|------------------------------------------------|

|------------------------------------------------|
|------------------------------------------------|
|------------------------------------------------|
|------------------------------------------------|  GTR 2
|-10"--9"--7"--9"--10"--14"--12"-----------------|
|------------------------------------------------|

Riff 6
"I long for your touch..."                       X2
|------------------------------------------------|
|------------------------------------------------|
|------------------------------------------------|
|-7---7-5---5-3-----3-----5----------------------|  GTR 1
|-7---7-5---5-3-----3-----5----------------------|
|-5---5-3---3-1-0-0-1-0-0-3----------------------|

|------------------------------------------------|
|------------------------------------------------|
|------------------------------------------------|
|-7---7-10---10-3---3-5--------------------------|  GTR 1
|-7---7-10---10-3---3-5--------------------------|
|-5---5-8----8--1---1-3--------------------------|

|------------------------------------------------|
|------------------------------------------------|
|------------------------------------------------|
|-10---9-7---9-10---14-12--------10-12-----------|  GTR 2
|--------------------------12-14-----------------|
|------------------------------------------------|

|------------------------------------------------|
|------------------------------------------------|
|------------------------------------------------|
|-10---9-7---9-10--10-9-7----7h9-----------------|  GTR 2 cont.
|-------------------------10---------------------|
|------------------------------------------------|

Riff 7
"Deep inside me..."

|------------------------------------------------|
|------------------------------------------------|
|------------------------------------------------|
|-7-7----------5-5---------3-3---------5-5-----5-|  GTR 1
|-7-7-7---7p5--5-5-5---5p3-3-3-3---3p1-5-5-5-----|
|-5-5---5------3-3---3-----1-1---1-----3-3---3---|

|------------------------------------------------|
|------------------------------------------------|
|------------------------------------------------|
|-7------------5-----------3-3---------5-5-----5-|  GTR 2
|-7------------5-----------3-3-3---3p1-5-5-5-----|
|-5------------3-----------1-1---1-----3-3---3---|

Fill 3

|------------------------------------------------|
|------------------------------------------------|
|------------------------------------------------|
|-10-9-10-12-10-9-10----10-9----9----------------|  GTR 1
|--------------------12------10---10-7-----------|
|------------------------------------------------|

|------------------------------------------------|
|------------------------------------------------|
|-10-9-10-12-10-9-10----10-9----9----------------|
|--------------------12------10---10-9-----------|  GTR 2
|------------------------------------------------|
|------------------------------------------------|

Fill 4

|------------------------------------------------|
|------------------------------------------------|
|------------------------------------------------|
|-3-----3-----3---5------------------------------|  GTRs 1 & 2
|-3-----3-----3---5------------------------------|
|-1-0-0-1-0-0-1-0-3------------------------------|

Riff 8

|------------------------------------------------|
|------------------------------------------------|
|-5----------5-3-----5----------5-3--------------|
|-5----------5-3-----5----------5-3--------------|  GTRs 1 & 2
|-3----------3-1-----3----------3-1--------------|
|--------0-0------0----------0-0-----------------|

|------------------------------------------------|
|------------------------------------------------|
|------------------------------------------------|
|-6----------8-8-----4---4---3-3-3---------------|  GTRs 1 & 2
|-6----------8-8-----4---4---3-3-3---------------|


Important: The song above is NOT stored on the Chordie server. The original song is hosted at www.xguitar.com. Chordie works as a search engine and provides on-the-fly formatting. Chordie does not index songs against artists'/composers' will. To remove this song please click here.

This song is displayed as text-only. Transposing and tuning is only available for chordpro-songs.

Login - add to songbook

Rating click stars to rate

Layout
Accuracy

SHARE PAGE  




You need to log in to post comments