Guitar Tabs, Chords and Lyrics


Enlightened By The Cold    Shadows Fall



Band: Shadows Fall
Album: The War Within
Song: Enlightened by the cold

this is a pretty easy song if you have fast fingers but newayz here it goes
Tuning: Low to High CGCfad

Intro:
-----------------------------------------------------
-----------------------------------------------------
-----------------------------------------------------
--56-00-32-00-35-00-10-00-56-00-32-------------------
--56-00-32-00-35-00-10-00-56-00-32------------3---
--56-00-32-00-35-00-10-00-56-00-32-0000-5-3-5---5----

-----------------------------------------------------
-----------------------------------------------------
-----------------------------------------------------
--56-00-32-00-35-00-10-00-56-00-32-------------------
--56-00-32-00-35-00-10-00-56-00-32-------3-----------
--56-00-32-00-35-00-10-00-56-00-32-0000-5---5-3-5-

Verse:

-----------------------------------------------------
-----------------------------------------------------
-----------------------------------------------------
-1---0-03-065-01-000------------------8-7------------
-1---0-03-065-01-000--5p0-7p0-8p0-7p0-----8----------
-10000-03-065-01-000---------------------------------
  ...

-----------------------------------------------------
-----------------------------------------------------
-----------------------------------------------------
-1---0-03-065-01-000--5p0-3p0---3-2------------------
-1---0-03-065-01-000----------5-----3~~--------------
-10000-03-065-01-000---------------------------------



Important: The song above is NOT stored on the Chordie server. The original song is hosted at www.xguitar.com. Chordie works as a search engine and provides on-the-fly formatting. Chordie does not index songs against artists'/composers' will. To remove this song please click here.

This song is displayed as text-only. Transposing and tuning is only available for chordpro-songs.

Login - add to songbook

Rating click stars to rate

Layout
Accuracy

SHARE PAGE  




You need to log in to post comments