Guitar Tabs, Chords and Lyrics


Ghosts Of Past Failures    Shadows Fall



Band: Shadows Fall
Song: Ghost of Past Failures
Album: The War Within
Number: 8
Guitar Part: Both
Guitar Tuning: Drop C (CGCFAD)
Tabbed by: Geoffrey Thomas Ophee
Email/MSN: llFade2ll3lack@hotmail.com

I know that some of this is wrong, but appreiciate this tab. I took the time to interpret
it my own way.
AND tab it out for all of you.
Im only human!
_______________________________________________________________________________________
*Rhythm*
(Just Chords here, i havnt tabbed the strumming pattern.)
|-------------------|
|-------------------|
|-------------------|
|-2---5---5---5---7-|
|-2---5---3---5---7-|
|-2---5-------5---7-|

|-----------------------------------------------------------------------|
|-----------------------------------------------------------------------|
|-12-12-14-14-10~-10-10-12-12-14-14-9~--9-9--12-12-14-14-14/15~-12~-14~-|
|-----------------------------------------------------------------------|
|-----------------------------------------------------------------------|
|-----------------------------------------------------------------------|
___________________________________________________________________________________________________

*Both*
|----------------------------------------------------------------------------|
|----------------------------------------------------------------------------|
|-----9---7-7--7----------9---5-5--5----------9---4-4--4-----4-4-------------|
|-7-0-9-0-7-7--7------7-0-9-0-5-5--5------7-0-9-0-4-4--4-----4-4----7-7----7-|
|-7-0-7-0-5-5--5-00---7-0-7-0-3-3--3-00---7-0-7-0-2-2--2-----2-2----7-7----7-|
|-7-0---0----00--00---7-0---0----00--00---7-0---0----00---00-----00-7-7-00-7-|
PM           --  --         --   --  --              --   --     --     --
____________________________________________________________________________________________________

Bridge
[Clean]
(The Ghost, of Past Failures.)
|-----------------------------------------------------------|
|-----------------------------------------------------------|
|------9------------9----------------12-------------10------|
|---9-----9-10---9-----9-10------12----12--12----9----10-10-|
|--7-7---7------7-7---7--------10--10----10-----7-7-----8---|
|-7------------7-------------10----------------7------------|
_____________________________________________________________________________________________________

*Both*
(Facing, the reality.)
|-------------------------------------------------------------------|
|-------------------------------------------------------------------|
|-------------------------------------------------------------------|
|-7---7p0-10p0------------------------------------------------------|
|-7---7p0-10p0-------3p0-2p0-0-00-3p0-5p3-3-00-3p0-2p0-0-00-3p0-5p0-|
|-7---7p0-10p0--0-xx------------------------------------------------|
PM                             --           --           --

#cutline#
(Of our own, imperfections.)
|-------------------------------------------------------------------|
|-------------------------------------------------------------------|
|-------------------------------------------------------------------|
|-7---7p0-10p0------------------------------------------------------|
|-7---7p0-10p0-------3p0-2p0-0-00-3p0-5p3-3-00-3p0-2p0-0-00-3p0-5---|
|-7---7p0-10p0--0-xx------------------------------------------------|
PM                             --           --           --

#cutline#
(The waves crash, without warning.)
|--------------------------------------|
|--------------------------------------|
|--------------------------------------|
|----------3/5---5----2h3p2-3333333333-|
|-2--2--2h3----0---00-------3333333333-|
|--0--0---------------------3333333333-| X4
PM -  -        -   --
________________________________________________________________________________________________

*Both*
|-----------|
|-----------|
|-----5-----|
|-3-5-5-3-7-|
|-3-5-3-3-7-|
|-3-5---3-7-|
_________________________________________________________________________________________________


*Both*
|----------------------------------------------------------------------------|
|----------------------------------------------------------------------------|
|-----9---7-7--7----------9---5-5--5----------9---4-4--4-----4-4-------------|
|-7-0-9-0-7-7--7------7-0-9-0-5-5--5------7-0-9-0-4-4--4-----4-4----7-7----7-|
|-7-0-7-0-5-5--5-00---7-0-7-0-3-3--3-00---7-0-7-0-2-2--2-----2-2----7-7----7-|
|-7-0---0----00--00---7-0---0----00--00---7-0---0----00---00-----00-7-7-00-7-| X2
PM           --  --         --   --  --              --   --     --     --
___________________________________________________________________________________________________

*Both*
(The core, of our being.)
|-------------------------------------------------------------------|
|-------------------------------------------------------------------|
|-------------------------------------------------------------------|
|-7---7p0-10p0------------------------------------------------------|
|-7---7p0-10p0-------3p0-2p0-0-00-3p0-5p3-3-00-3p0-2p0-0-00-3p0-5p0-|
|-7---7p0-10p0--0-xx------------------------------------------------|
PM                             --           --           --

#cutline#
(Torn out and, cast aside.)
|-------------------------------------------------------------------|
|-------------------------------------------------------------------|
|-------------------------------------------------------------------|
|-7---7p0-10p0------------------------------------------------------|
|-7---7p0-10p0-------3p0-2p0-0-00-3p0-5p3-3-00-3p0-2p0-0-00-3p0-5---|
|-7---7p0-10p0--0-xx------------------------------------------------|
PM                             --           --           --

#cutline#
(I never looked, this far away.)
|--------------------------------------|
|--------------------------------------|
|--------------------------------------|
|----------3/5---5----2h3p2-3333333333-|
|-2--2--2h3----0---00-------3333333333-|
|--0--0---------------------3333333333-| X4
PM -  -        -   --
___________________________________________________________________________________________________

*Both*
|-----------|
|-----------|
|-----5-----|
|-3-5-5-3-7-|
|-3-5-3-3-7-|
|-3-5---3-7-|
___________________________________________________________________________________________________


*Both*
|----------------------------------------------------------------------------|
|----------------------------------------------------------------------------|
|-----9---7-7--7----------9---5-5--5----------9---4-4--4-----4-4-------------|
|-7-0-9-0-7-7--7------7-0-9-0-5-5--5------7-0-9-0-4-4--4-----4-4----7-7----7-|
|-7-0-7-0-5-5--5-00---7-0-7-0-3-3--3-00---7-0-7-0-2-2--2-----2-2----7-7----7-|
|-7-0---0----00--00---7-0---0----00--00---7-0---0----00---00-----00-7-7-00-7-| X2
PM           --  --         --   --  --              --   --     --     --
___________________________________________________________________________________________________

[Clean]
|-----------------------------------------------|
|-----------------------------------------------|
|----9--------9-10------9--------9--------9-----|
|---9-9-10---9----10---9-9-10-----9-10-----9-10-|
|--7--------7---------7-------------------------|
|-7--------7---------7---------7--------7-------| X2
___________________________________________________________________________________________________

Solo
|---------------------------------------------------------------------------------|
|---------------------------------------------------------------------------------|
|---------------------------------------------------------------------------------|
|-7777-7-77777-101010-101010-10-1010-1010-0-5-55-555-5-550-3-3333-3333-3-222-2222-|
|-7777-7-77777-101010-101010-10-1010-1010-0-5-55-555-5-550-3-3333-3333-3-222-2222-|
|-7777-7-77777-101010-101010-10-1010-1010-0-5-55-555-5-550-3-3333-3333-3-222-2222-|X2
PM----   ----         ------    ----          -- --- -            ---

#cutline#
|-------------------------------------------------------|
|-------------------------------------------------------|
|-------------------------------------------------------|
|-------------------------------------------------------|
|------10--8-----10--10-----8----------10-8---10-10---8-|
|-10-10--10-10-10--10--10-10--10-10-8-8--8-8-8--8--8-8--| X2
PM-- --  -- -- --  --  -- --  -- -- - -  - - -  -  - -

#cutline#
|---------------------------------------------------------------------------------|
|---------------------------------------------------------------------------------|
|---------------------------------------------------------------------------------|
|-7777-7-77777-101010-101010-10-1010-1010-0-5-55-555-5-550-3-3333-3333-3-222-2222-|
|-7777-7-77777-101010-101010-10-1010-1010-0-5-55-555-5-550-3-3333-3333-3-222-2222-|
|-7777-7-77777-101010-101010-10-1010-1010-0-5-55-555-5-550-3-3333-3333-3-222-2222-|
PM----   ----         ------    ----          -- --- -            ---

(Just Chords here, i havnt tabbed the strumming pattern.)
#cutline#
|-------------------|
|-------------------|
|-------------------|
|-2---5---5---5---7-|
|-2---5---3---5---7-|
|-2---5-------5---7-|

|-----------------------------------------------------------------------------------------------------|
|-----------------------------------------------------------------------------------------------------|
|-14~-14p12-14p12-------------------------------------------------------------------------------------|
|-----------------15p14-14p12-1210-10/12-12h14~-15-14-12-10~-10-9-------------------------10-x-12-14--|
|-----------------------------------------------------------------12-10~-108-8-x-10-x-12-x------------|
|-----------------------------------------------------------------------------------------------------|

#cutline#
|----------------------------------------------------------------------------------------------------------------|
|-------0h15h17-0h13h15-------0h15h17-0h13h15-------0h15h17-0h13h15-------0h15h17-0h13h15-------0h15h17-17p15-13-|
|0h15h17---------------0h15h17---------------0h15h17---------------0h15h17---------------0h15h17-----------------|
|----------------------------------------------------------------------------------------------------------------|
|----------------------------------------------------------------------------------------------------------------|
|----------------------------------------------------------------------------------------------------------------|

#cutline#
|---15-22p15--20p15--19p15--20p15--19p15-------------------------------------|
|-17--------17-----17-----17-----17-----17-15~-15/17-17/19-19/20-20/22^(24)~-|
|----------------------------------------------------------------------------|
|----------------------------------------------------------------------------|
|----------------------------------------------------------------------------|
|----------------------------------------------------------------------------|

#cutline#
|------------------------------------------------------------------------------------------------------|
|------------------------------------------------------------------------------------------------------|
|--------0h15h17-0h17h19-------0h15h17-0h17h19-------14^(15)v(14)^(15)--14^(15)v(14)--14^(15)v(14)-----|
|-0h15h17---------------0h15h17---------------0h15h17-----------------17------------17------------17-15|
|------------------------------------------------------------------------------------------------------|
|------------------------------------------------------------------------------------------------------|

#cutline#
|---------------------------------------------------------------------|
|-------------------------------------------20----18----16----15------|
|---17--19--20--19--17--19--20--19--17----17----17----17----17-----17-|
|-17--17--17--17--17--17--17--17--17----17----17----17----17-----17---|
|---------------------------------------------------------------------|
|---------------------------------------------------------------------|

#cutline#
|-20p19p17p15-----------20p19p17p15-----------20p19p17p15-----------20p19p17p15-----------20p19p17p15------------|
|------------20p19p17p15-----------20p17p17p15-----------20p19p17p15-----------20p19p17p15-----------20p19p17p15-|
|----------------------------------------------------------------------------------------------------------------|
|----------------------------------------------------------------------------------------------------------------|
|----------------------------------------------------------------------------------------------------------------|
|----------------------------------------------------------------------------------------------------------------|

#cutline#
|-20p19p17p15------------------------------------------------|
|------------20p19p17p15-------------------------------------|
|-----------------------20p19p17p15-20p19p17p15-15h17-15h17~-|
|------------------------------------------------------------|
|------------------------------------------------------------|
|------------------------------------------------------------|

#cutline#
Shread-------------------------------------------------------------------------------------------------
|-------------------------------------------------------------------------------------------------------|
|-------------------------------------------------------------------------------------------------------|
|--------------------------------------------------------------------17-15-17-15-17-15------------------|
|------------------17-15-17-15-17-15----------------17-15-17-15-17-15-----------------17-15-17-15-17-15-|
|-17-15-17-15-17-15-----------------17-15-17-15-17-15---------------------------------------------------|
|-------------------------------------------------------------------------------------------------------|

(Continued from 3:27}
Shread--------------------------------------------------------------------------------------------------
|---------------------------------------------------------------------17-15-17-15-17-15-----------------15~-17~-|
|------------------17-15-17-15-17-15-----------------17-15-17-15-17-15-----------------17-15-17-15-17-15--------|
|-17-15-17-15-17-15-----------------17-15-17-15-17-15-----------------------------------------------------------|
|---------------------------------------------------------------------------------------------------------------|
|---------------------------------------------------------------------------------------------------------------|
|---------------------------------------------------------------------------------------------------------------|

#cutline#
|-----------------------------------------------------------------------|
|-----------------------------------------------------------------------|
|-12-12-14-14-10~-10-10-12-12-14-14-9~--9-9--12-12-14-14-14/15~-12~-14~-|
|-----------------------------------------------------------------------|
|-----------------------------------------------------------------------|
|-----------------------------------------------------------------------|
_____________________________________________________________________________________________________


*Both*
|----------------------------------------------------------------------------|
|----------------------------------------------------------------------------|
|-----9---7-7--7----------9---5-5--5----------9---4-4--4-----4-4-------------|
|-7-0-9-0-7-7--7------7-0-9-0-5-5--5------7-0-9-0-4-4--4-----4-4----7-7----7-|
|-7-0-7-0-5-5--5-00---7-0-7-0-3-3--3-00---7-0-7-0-2-2--2-----2-2----7-7----7-|
|-7-0---0----00--00---7-0---0----00--00---7-0---0----00---00-----00-7-7-00-7-| X4
PM           --  --         --   --  --              --   --     --     --
_____________________________________________________________________________________________________


Important: The song above is NOT stored on the Chordie server. The original song is hosted at www.xguitar.com. Chordie works as a search engine and provides on-the-fly formatting. Chordie does not index songs against artists'/composers' will. To remove this song please click here.

This song is displayed as text-only. Transposing and tuning is only available for chordpro-songs.

Login - add to songbook

Rating click stars to rate

Layout
Accuracy

SHARE PAGE  




You need to log in to post comments