Guitar Tabs, Chords and Lyrics


Inspiration On Demand    Shadows Fall



-------------------------------------------------------------------------------
			     Inspiration on Demand - Shadows Fall
-------------------------------------------------------------------------------
Tabbed by: Dre
Email: thrashcoursefromhell@verizon.net
As heard on The War Within (track # 6)
Tuning: Drop C

  Alrighty people, this is the intro to Inspiration on Demand. I tabbed it up to the
verse, after that I got me no idea what they play. Im workin on the rest of the song,
so look for it soon

Guitar 1 - Matt (rhythm)
Guitar 2 - Jon (lead)
guitar 3 - ?

Intro (distortion) - Both guitars (remember, its drop C)

 Intro                    P.M. .         P.M          P.M.  .  P.M .  .        PM.  .
|---------------------------------------------------------------------------------|
|---------------------------------------------------------------------------------|
|------3-3-------------5-----5--7----------------3-3------------------------------|
|------3-3-------------5-----5--7----------------3-3------------------------------|
|-0-1--1-1--0----0-0-- 3--0--3--5---0-0---0-1---1-1---0---0-0--1h3-0-0--3h5-------|
|-0-1-------0----0-0------0---------0-0---0-1---------0---0-0--1h3-0-0--3h5-------|


Heres the clean verse part, both guitars i believe.
Gtr. 1 & 2   Repeat 3x
|-------0--------------0--------------0-------------5-----------------------|
|-----6---6----------6---6----------6---6---------6--6----------------------|
|---7-------7------7-------7------7-------7-----7------7--------------------|
|-7--------------7--------------7-------------7-----------------------------|
|---------------------------------------------------------------------------|
|---------------------------------------------------------------------------|
end the verse on this
|-------0-------------------------------------------------------------------|
|-----6---6-----------------------------------------------------------------|
|---7-------7---------------------------------------------------------------|
|-7-------------------------------------------------------------------------|
|---------------------------------------------------------------------------|
|---------------------------------------------------------------------------|

|---------------------------------------------------------------------------|
|---------------------------------------------------------------------------|
|---------------------------------------------------------------------------|
|---------------------------------------------------------------------------|
|---------------------------------------------------------------------------|
|---------------------------------------------------------------------------|

Heres what the harmony COULD be

guitar 2 (Jon)
|-----------------------------------------------------------------------------|
|-----5-6-8-6-5~~-------------------------------------------------------------|
|-5/7-------------------------------------------------------------------------|
|-----------------------------------------------------------------------------|
|-----------------------------------------------------------------------------|
|-----------------------------------------------------------------------------|
guitar 3
|---------------------------------------------------------------------------|
|---------------------------------------------------------------------------|
|---------------------------------------------------------------------------|
|---------------------------------------------------------------------------|
|---------------------------------------------------------------------------|
|---------------------------------------------------------------------------|
Gtr. 2
|------------8----------------------------------------------------------------|
|-8-10-8-10---11-10-11~~------------------------------------------------------|
|-----------------------------------------------------------------------------|
|-----------------------------------------------------------------------------|
|-----------------------------------------------------------------------------|
|-----------------------------------------------------------------------------|
Gtr. 3
|--------------11-------------------------------------------------------------|
|-11-13-11-13----14-13-14~~---------------------------------------------------|
|-----------------------------------------------------------------------------|
|-----------------------------------------------------------------------------|
|-----------------------------------------------------------------------------|
|-----------------------------------------------------------------------------|

INPIRATION ON DEMAND(SOLO)
Tabbed By:MetalFreekz(MetalFreekz@hotmail.com)

Please note I am working on a tab for the entire song, but I got the solo almostperfect,
so I figured I might as well post it. The solo is completely insane.

  Gtr I
|-------------------------------------------------|
|-------------------------------------------------|
|-------------------------------------15-17-18-17-|
|-------------------------15-17-18-17-------------|
|-------------15-17-18-17-------------------------|
|-15-17-18-17-------------------------------------|


|-------------------------------------------------|
|-------------------------------------17-19-20-19-|
|-------------------------17-19-20-19-------------|
|-------------17-19-20-19-------------------------|
|-17-19-20-19-------------------------------------|
|-------------------------------------------------|


|-18-------15-17-------15-17-------15-17-------15-|
|----15-17-------15-17-------15-17-------15-17----|
|-------------------------------------------------|
|-------------------------------------------------|
|-------------------------------------------------|
|-------------------------------------------------|


                           ~~~~~
|-17----------------------18b------|
|----18-17-------15-17-18----------|
|----------15-17-------------------|
|----------------------------------|
|----------------------------------|
|----------------------------------|


|-------------------------------------------------|
|-------13----13----------13----13----------13----|
|----16----16----16----16----16----16----16----16-|
|-13----------------15----------------15----------|
|-------------------------------------------------|
|-------------------------------------------------|


|-------------------------------------------------|
|-------15----15----------15----15----------15----|
|----18----18----18----18----18----18----18----18-|
|-15----------------17----------------17----------|
|-------------------------------------------------|
|-------------------------------------------------|

|---------------------------------------------|
|-------17----17----------17----17------------|
|----20----20----20----20----20----20----20---|
|-19----------------19----------------19------|
|---------------------------------------------|
|---------------------------------------------|
                                   ~~~~~~
|----------------------------------17b-----|
|-17-------15----------13------------------|
|----20-18----18----------16---------------|
|----------------15-17-------13-15---------|
|------------------------------------------|
|------------------------------------------|


|---------------|---------------|-------|
|---------------|---------------|-------|
|-8--9----------|---------------|-15----|
|-------15--17--|-15--13--------|-------|
|---------------|---------14----|-------|
|---------------|---------------|-------|


|-------------|--------------------|
|-------------|--------------14-13-|
|-16----15----|---------15\--------|
|-------------|-12-12--------------|
|-------------|--------------------|
|-------------|--------------------|

      Wide Vibrato
|----15/\/\/\/\/\----|
|--------------------|
|-14-----------------|
|--------------------|
|--------------------|
|--------------------|



Important: The song above is NOT stored on the Chordie server. The original song is hosted at www.xguitar.com. Chordie works as a search engine and provides on-the-fly formatting. Chordie does not index songs against artists'/composers' will. To remove this song please click here.

This song is displayed as text-only. Transposing and tuning is only available for chordpro-songs.

Login - add to songbook

Rating click stars to rate

Layout
Accuracy

SHARE PAGE  




You need to log in to post comments