Guitar Tabs, Chords and Lyrics


The Power Of I and I    Shadows Fall



Shadows Fall - Power of I and I
Tabbed By: mutilated
Email: purekataklysm@hotmail.com

Tuning: Drop C (C G C F A D)

Yo! peoples, haha well i got the new CD and they show you how to play this but
there is no solo (Sucks) but at least you get the song right?

Intro riff
---------------------------------
---------------------------------
---------------------------------
--43-0-121-0-4/3--0-43-0-121-0---
--43-0-121-0-2/1--0-43-0-121-0---
--43-0-121-0------0-43-0-121-0---
PM.. . ... .      . .. . ... .

Riff 2
---------------------------------
---------------------------------
---------------------------------
-0-1-0--4-3-0--0-1-0--2--2-------
-0-1-0--4-3-0--0-1-0--3--4-------
-0-1-0--4-3-0--0-1-0---00--------
PM....  .....  .....   ..

Riff 3
-------------------------------|--------------------
-------------------------------|--------------------
-------------------------------|----76-7/9-764~-----Jon(higher notes)
--43-0-121-0-4/3--0-43-0-121-0-|-5--54-5/7-542~-----Matt(lower notes)
--43-0-121-0-2/1--0-43-0-121-0-|-3------------------
--43-0-121-0------0-43-0-121-0-|--------------------
PM.. . ... .      . .. . ... .

(The Last Part I'm Not Quite Sure About It But It sounds Close to me)
------------------------------------|----------|----------------
------------------------------------|----------|-------------5--
------------------------------------|----------|--9-10--9/7-7---
-7--------------3-----5/6\\5--------|(7-5-0-2)-|-10-10-10/8-----
-5-00-1-0--0000-1-000-3/4\\3-131-00-|-8-7-1-3--|----------------
---00-1-0--0000---000------0-131-00-|----0-----|----------------
Pm ..      ....   ...      .      .      .

(The Kick Ass Part I Think)
-----------------|--------------5*-------
-----------------|---------------5*------
-----------------|----------------5*-----
-----------------|-----------------5*----
---------------3-|------------------5*---
-1-0-6-3-3-5-0-3-|-1-0-6-3-3-5-0---------
Trem pick and PM all single notes

Chorus riff        Jons harmony
------------------|-------|----------
------------------|-------|----------
------------------|-------|----------
------------------|-------|----------
-56---353---87-45-|-87-78-|--0(x12)--
-56-0-353-0---0---|---0---|--0-------


Important: The song above is NOT stored on the Chordie server. The original song is hosted at www.xguitar.com. Chordie works as a search engine and provides on-the-fly formatting. Chordie does not index songs against artists'/composers' will. To remove this song please click here.

This song is displayed as text-only. Transposing and tuning is only available for chordpro-songs.

Login - add to songbook

Rating click stars to rate

Layout
Accuracy

SHARE PAGE  




You need to log in to post comments