Chordie logo


Soak Up the Sun   Sheryl Crow







Author/Artist: sheryl crow
Title: soak up the sun
Transcribed by: Saverain
Email: saverain@hotmail.com
This song may be in D tuning but not on this tab
This is what it sounds like to me and if you don't like it
E-mail me
you'll have to find the lyrics somewhere else sorry. I are not to good words
v strum down
^ strum up
m mute
s strum down slowly

-|-------4------------------|-------------------------|--4--4--4-4-4-4--4-4---
-|----------5---------------|-------------------------|--5--5--5-5-5-5--5-5---
-|-4-2-4----------4----2--2-|-4-2-4---------4----2--2-|--4--4--4-4-4-4--4-4---
-|-2-2-2-------4--4--2-2--2-|-2-2-2------4--4--2-2--2-|--2--2--2-2-2-2--2-2---
-|-2-2-2-------2--2--0-0--0-|-2-2-2------2--2--0-0--0-|--2--2--2-2-2-2--2-2---
-|--------------------------|-------------------------|-----------------------
         ^  vm  m  m       m  v ^ v      vm vm ^ v  vm   v  v  v ^ v ^  ^ v

-4-4-4-4--2--2--2-2-x-2--2-2--2-2-2-2--2--------------5--------------2--2--2--
-5-5-5-5--4--4--4-4-x-4--4-4--4-4-4-4--2--------------5--5-5--5-5-5--4--4--4--
-4-4-4-4--4--4--4-4-x-4--4-4--4-4-4-4--2--2-2---------6--6-6--6-6-6--4--4--4--
-2-2-2-2--4--4--4-4-x-4--4-4--4-4-4-4--4--4-4----4-4--7--7-7--7-7-7--4--4--4--
-2-2-2-2--2--2--2-2-x-2--2-2--2-2-2-2--4--4-4-4--4-4--7--7-7--7-7-7--2--2--2--
--------------------x------------------2------2--2-2--5-----------------------
 v ^ v ^  s  continue                  s  v ^ v  v ^  s  v ^  ^ v ^

-2-2-2--2-2--2-2-2-2--|-------|------|-------------------------|--------|-----
-4-4-4--4-4--4-4-4-4--|-------|------|-------------------------|--------|-----
-4-4-4--4-4--4-4-4-4--|-------|------|----9-----8-----7-----6--|--------|-----
-4-4-4--4-4--4-4-4-4--|-------|------|-9--9--9--9--7--7--7--7--|--------|-----
-2-2-2--2-2--2-2-2-2--|-------|------|-7--7--9--9--5--5--7--7--|--------|-----
----------------------|-------|------|-------7-----------5-----|--------|-----
                        intro  verse   v  ^m v  ^m v  ^m v  ^m  chorus 2x

-|---------|-------------------------------------------------|----------------
-|---------|-9-9-9-9-x-x-7-7-7-7-x-x-7-7-7-7-x-x-5-5-5-5-x-x-|----------------
-|---------|-9-9-9-9-x-x-8-8-8-8-x-x-7-7-7-7-x-x-6-6-6-6-x-x-|-4-4-4-4-x-x-6--
-|---------|-9-9-9-9-x-x-9-9-9-9-x-x-7-7-7-7-x-x-7-7-7-7-x-x-|-6-6-6-6-x-x-7--
-|---------|-7-7-7-7-x-x-9-9-9-9-x-x-5-5-5-5-x-x-7-7-7-7-x-x-|-6-6-6-6-x-x-7--
-|---------|-------------------------------------------------|-3-3-3-3-x-x-5--
   verse     v ^ v ^mv ^ continue   sec interlude  2x  then end with

-----------|------|-4--4-4-4-4-4-4--4-4--4-4-4-4--2--2-2-2-2-x-2--2-2--2-2-2--
-----------|------|-5--5-5-5-5-5-5--5-5--5-5-5-5--4--4-4-4-4-x-4--4-4--4-4-4--
-6-6-6-x-x-|------|-4--4-4-4-4-4-4--4-4--4-4-4-4--4--4-4-4-4-x-4--4-4--4-4-4--
-7-7-7-x-x-|------|-2--2-2-2-2-2-2--2-2--2-2-2-2--4--4-4-4-4-x-4--4-4--4-4-4--
-7-7-7-x-x-|------|-----------------------------------------------------------
-5-5-5-x-x-|------|-----------------------------------------------------------
           chorus   v  v ^ v ^ v ^  ^ v  v ^ v ^  continue     slow it down

-2--2-------------5--------------2--|-----------------------------------------
-4--2-------------5--5-5--5-5-5--4--|-----------------------------------------
-4--2--2-2--------6--6-6--6-6-6--4--|-----------------------------------------
-4--4--4-4-4--4-4-7--7-7--7-7-7--4--|-----------------------------------------
----4--4-4-4--4-4-7--7-7--7-7-7--2--|-----------------------------------------
----2------2--2-2-5-----------------|-----------------------------------------


Important: The song above is NOT stored on the Chordie server. The original song is hosted at www.xguitar.com. Chordie works as a search engine and provides on-the-fly formatting. Chordie does not index songs against artists/composers will. To remove this song please click here.

This song is displayed as text-only. Transposing and tuning is only available for chordpro-songs.

Login - add to songbook

Rating click stars to rate

Layout
Accuracy

SHARE PAGE  




You need to log in to post comments