Anything But Down

Sheryl Crow

 F#/A
   E |----0---|
   B |----0---|
   G |----2---|
   D |----0---|
   A |----0---|
   E |----2---|


'p': pull off
'h': hammer on
'b': bend
's': slide

Intro: (G1) Em x 8 bars (32 beats)

Intro: (G2)

RIFF 1:

Bar 1 G1 enter Bar 2

E|-------------|---0h2p0-------------------------- |----0h2p0--------------------|
B|-------------|-----------------3s2-----0-------- |-----------------3s2-----3---|
G|-------------|---------------------------------- |-----------------------------|
D|----2h4----- |-------------------------------2h4 |-----------------------------|
A|-------------|---------------------------------- |-----------------------------|
E|-------------|---------------------------------- |-----------------------------|


Repeat RIFF 1 twice.

 EmDAmC
I light your cigarette, I bring you apples from the vine

 EmDAmC
How quickly you forget, I run the bath and pour the wine

 EmF#/AC
I bring you everything that floats into your mind

 GDAmC
Now you don’t bring me anything but down (repeat x 3)

 Em
When you come round

 EmDAmC
You are a raging sea, I pull myself out everyday

 EmDAmC
I plea insanity, ‘cause I can't leave and I can't stay

 EmF#/AC
You say won’t you come find me and yes is what I’ll say

 GDAmC
You don’t bring me anything but down (repeat x 2)

 EmDAmC
And everything is crashing to the ground

 GD
Maybe I'm not the perfect kind

 AmC
Maybe I’m not what you had in mind

 GAmC
And maybe we’re just killing time

inst. (G1) G D Am C G D Am

inst. (G2)

   e |---3s7---8---10---12s5---3h5p3h5---7---8---10---12s5---5p3---3h5---3s0---|


(high e, the thinnest string)

 EmDAmC
You with your silky words, and your eyes of green and blue

 EmDAmC
You with your steel beliefs that don’t match anything you do

 EmF#/AC
You were so much easier before you became you.

 GDAmC
You don’t bring me anything but down. (repeat x 2)

 GDAmC
And everything just crashes to the ground.

 GDAmC
When you come around.

 GAmC
When you come around ..

 GD
Well no more playing seek and hide,

 AmC
No more long and wasted nights,

 GDAmC
Can't you make it easy on yourself.

 GD
Well I know you wish you were strong,

 AmC
You wish you were never wrong,

G D Am (end by strumming once down on the Am cord.)

Well I got some wishes of my own.


Am C D Em G
variations - click chord images
Transpose chords:
Tuning:
Cool service:
View: Size:
A  A  A
Rating:
Layout:
  • Currently 3/5 Stars.
  • 1
  • 2
  • 3
  • 4
  • 5
 
Accuracy:
  • Currently 2.5/5 Stars.
  • 1
  • 2
  • 3
  • 4
  • 5
 
click stars to rate
Chordie recommends:
Learn to play songs at Jamplay.com with video guitar lessons
Songbook:
Login to add this song to your songbook
Support the artist
Preview/buy this song
MSN Music
Why this non-profit ad?

 
login to add comments/video/corrections