Guitar Tabs, Chords and Lyrics


Riverwide   Sheryl Crow



Author/Artist: SHERYL CROW
Title: RiverWide
Album: The Globe Sessions
Transcribed by: keogh (France)
Email: keogh1977@hotmail.com

The secret of the song is the tuning (B open tuning)
1E --> D#
2B --> B
3G --> F#
4D --> B
5A --> F#
6E --> B

------------------------------------------------------------------------------
-----0-------0-------0-------0-------0-------0--------0-------0-------0-------
-------0-------0-------0-------0-------0-------0--3p0---0-------0-------0-----
---0-------0-------0-------0-------0-------0----------------0-------0-------0-
------------------------------------------------------------------------------
-0-------0-------0-------0-------0-------0--------0-------0-------0-------0---


------------------------------------------------------------------------|-----
-0-------0-------0-------0-------0-------0-------0-------0--------0---0-|-----
---0-3p0---0-------0-------0-------0-------0-------0-------0----0-------|-----
---------------0-------0-------0-------0-------0-------0------0-----0---|-----
------------------------------------------------------------------------|-----
-----0-------0-------0-------0-------0-------0-------0------------------|-----


------------------------------------------------------------------------------
-4/5-5/7-7-7/10\\7-\\5\\4/5\\4----------0-------0---------0-------4/5-5/7-7-/12\\9-
----------------------------0h2/3-3---3\\2-2---3\\2p0-----0---------------------
-4/5-5/7-7-7/10\\7-\\5\\4/5\\4----------------------------0-------4/5-5/7-7-/12\\9-
----------------------------0h2/3-----3\\2-----3\\2p0---------------------------
----------------------------------------------------0-------------------------


-------------------------|----------------------------------|-----------------
-10\\9\\7--------0-----2-0-|------0-------0-------0-------0---|-----0-------0---
---------0h2/3---2-0-----|--------0-------0-------0-------0-|-------0---------
-10\\9\\7--------0-----2-0-|----0-------0-------0-------0-----|---0-------0-----
---------0h2/3---2-0-----|----------------------------------|-----------------
-------------------------|--5-------3-------0-------0-------|-5-------3-------
                     2X                                  2X

------------------------------5-3-2-0-|---------------------------------------
-------0-------0-----0-0-0-0--0-0-0-0-|---------------------------------------
-0-------0-------0---0-0-0-0--5-3-2-0-|---------------------------------------
-----0-------0------------------------|---------------------------------------
--------------------------------------|---------------------------------------
---5-------5---------5-3-2-0--5-3-2-0-|---------------------------------------


------------------------------------------------------------------------------
-4/5-5/7-7-7/10\\7-\\5\\4/5\\4----------0-------0---------0-------4/5-5/7-7-/12\\9-
----------------------------0h2/3-3---3\\2-2---3\\2p0-----0---------------------
-4/5-5/7-7-7/10\\7-\\5\\4/5\\4----------------------------0-------4/5-5/7-7-/12\\9-
----------------------------0h2/3-----3\\2-----3\\2p0---------------------------
----------------------------------------------------0-------------------------

-------------------------|----------------------------------|-----------------
-10\\9\\7--------0-----2-0-|------0-------0-------0-------0---|-----0-------0---
---------0h2/3---2-0-----|--------0-------0-------0-------0-|-------0---------
-10\\9\\7--------0-----2-0-|----0-------0-------0-------0-----|---0-------0-----
---------0h2/3---2-0-----|----------------------------------|-----------------
-------------------------|--5-------3-------0-------0-------|-5-------3-------
                     2X                                  2X

------------------------------5-3-2-0-|---------------------------------------
-------0-------0-----0-0-0-0--0-0-0-0-|---------------------------------------
-0-------0-------0---0-0-0-0--5-3-2-0-|---------------------------------------
-----0-------0------------------------|---------------------------------------
--------------------------------------|---------------------------------------
---5-------5---------5-3-2-0--5-3-2-0-|---------------------------------------


------------------------------------------------------------------------------
-----0-------0-------0-------0-------0-------0--------0-------0-------0-------
-------0-------0-------0-------0-------0-------0--------0-------0-------0-----
---0-------0-------0-------0-------0-------0--------0--------0-------0--------
------------------------------------------------------------------------------
-0-------0-------0-------0-------0-------0--------0-------0-------0-----------
during the violin instru

----------------------------------
---------0-------0---------0------
-0h2/3-3---3\\2-2---3\\2p0-----0----
--------------------------0-------
-0h2/3-----3\\2-----3\\2p0----------
-------------------------0--------


------------------------------------------------------------------------------
-----0-------0-------0-------0-------0-------0--------0-------0-------0-------
-------0-------0-------0-------0-------0-------0--------0-------0-------0-----
---0-------0-------0-------0-------0-------0--------0--------0-------0--------
------------------------------------------------------------------------------
-0-------0-------0-------0-------0-------0--------0-------0-------0-----------


-----------------|----------------------------------|-----------------
-------0-----2-0-|------0-------0-------0-------0---|-----0-------0---
-0h2/3---2-0-----|--------0-------0-------0-------0-|-------0---------
-------0-----2-0-|----0-------0-------0-------0-----|---0-------0-----
-0h2/3---2-0-----|----------------------------------|-----------------
-----------------|--5-------3-------0-------0-------|-5-------3-------
						2X

-------------------|-----------5-3-2-0-|---------------------------------------
-------0-------0---|--0-0-0-0--0-0-0-0-|---------------------------------------
-0-------0-------0-|--0-0-0-0--5-3-2-0-|---------------------------------------
-----0-------0-----|-------------------|---------------------------------------
-------------------|-------------------|---------------------------------------
---5-------5-------|--5-3-2-0--5-3-2-0-|---------------------------------------
				   2X	end of the violin instru

----------------------------------|
-----0-------0-------0-------0----|
-------0-------0-------0-------0--|
---0-------0-------0-------0------|
----------------------------------|
-0-------0-------0-------0--------|


------------------------------------------------------------------------------
-4/5-5/7-7-7/10\\7-\\5\\4/5\\4----------0-------0---------0-------4/5-5/7-7-/12\\9-
----------------------------0h2/3-3---3\\2-2---3\\2p0-----0---------------------
-4/5-5/7-7-7/10\\7-\\5\\4/5\\4----------------------------0-------4/5-5/7-7-/12\\9-
----------------------------0h2/3-----3\\2-----3\\2p0---------------------------
----------------------------------------------------0-------------------------


-------------------------|----------------------------------|-----------------
-10\\9\\7--------0-----2-0-|------0-------0-------0-------0---|-----0-------0---
---------0h2/3---2-0-----|--------0-------0-------0-------0-|-------0---------
-10\\9\\7--------0-----2-0-|----0-------0-------0-------0-----|---0-------0-----
---------0h2/3---2-0-----|----------------------------------|-----------------
-------------------------|--5-------3-------0-------0-------|-5-------3-------
                     2X                                  2X

------------------------------5-3-2-0-|---------------------------------------
-------0-------0-----0-0-0-0--0-0-0-0-|---------------------------------------
-0-------0-------0---0-0-0-0--5-3-2-0-|---------------------------------------
-----0-------0------------------------|---------------------------------------
--------------------------------------|---------------------------------------
---5-------5---------5-3-2-0--5-3-2-0-|---------------------------------------


------------------------------------------------------------------------------
-4/5-5/7-7-7/10\\7-\\5\\4/5\\4----------0-------0---------0-------4/5-5/7-7-/12\\9-
----------------------------0h2/3-3---3\\2-2---3\\2p0-----0---------------------
-4/5-5/7-7-7/10\\7-\\5\\4/5\\4----------------------------0-------4/5-5/7-7-/12\\9-
----------------------------0h2/3-----3\\2-----3\\2p0---------------------------
----------------------------------------------------0-------------------------

-------------------------|----------------------------------|-----------------
-10\\9\\7--------0-----2-0-|------0-------0-------0-------0---|-----0-------0---
---------0h2/3---2-0-----|--------0-------0-------0-------0-|-------0---------
-10\\9\\7--------0-----2-0-|----0-------0-------0-------0-----|---0-------0-----
---------0h2/3---2-0-----|----------------------------------|-----------------
-------------------------|--5-------3-------0-------0-------|-5-------3-------
                     2X                                  2X

------------------------------5-3-2-0-|---------------------------------------
-------0-------0-----0-0-0-0--0-0-0-0-|---------------------------------------
-0-------0-------0---0-0-0-0--5-3-2-0-|---------------------------------------
-----0-------0------------------------|---------------------------------------
--------------------------------------|---------------------------------------


Important: The song above is NOT stored on the Chordie server. The original song is hosted at www.xguitar.com. Chordie works as a search engine and provides on-the-fly formatting. Chordie does not index songs against artists'/composers' will. To remove this song please click here.

This song is displayed as text-only. Transposing and tuning is only available for chordpro-songs.

Login - add to songbook

Rating click stars to rate

Layout
Accuracy

SHARE PAGE  




You need to log in to post comments