Guitar Tabs, Chords and Lyrics


Can't Cry Anymore  Sheryl Crow

|G  D |G  D |G  D |G  x x|[Band]G  D |[in]G  D |G  D |G  D |
[G] Took your car[D], [G] drove to Texas[D] [G]
Sorry honey[D], [G] but I suspected [D]we were [Em]through
C G etc
And I can't cry anymore
Since I left, been feelin' better cause
That's what you get when you stay together too long
And I can't cry anymore
[Em]Wouldn't it be good if we could [Am]hop a flight to anywhere
[Em]So long to this [A]life
[C] So much for pretending, bad luck's never ending
D (stab)
And now I know that..
Money comes in but the fact is there's not enough to pay my taxes
And I can't cry anymore
Well, got a brother - he's got real problems
Heroin - no, there's just no stopping him tonight
And I won't cry anymore
Wouldn't it be good if we could hop a flight to anywhere
So long to this life
So much for pretending, bad luck's never ending
It's never ending
(Same chords as first half of verse)
Well it could be worse: I could've missed my calling
Sometimes it hurts but when you read the writing on the wall
Can't cry anymore
[Em]Wouldn't it be nice if we could [Am]hop a flight to anywhere
[Em]So long to this [A]life
[C] So much for pretending, cause bad luck's never ending
And too much time I've been spending
With my heart in my hands waiting for time to come and mend it
D (stab)
I can't cry anymore (x5)
.............
The following riff is played throughout by two electric rhythm guitars
] (s]tab)]]
|-----3-----------|
|-----3-----3-3---|
|-----0-----2-2-0-|
|-----------0-0---|
|-----------------|
|-3---------------|

Tricky, isn't it! Obviously, the chord isn't always a G (and a D), so
follow the chords
There is also a lead guitar which plays the following during the chorus
('Wouldn't it be good..'):
] ] ] ] ] ] ] ] ] ] ] ] ] ] ] ]
|-----------------|---------|-----------------|---------|
|-----------------|---------|-----------------|---------|
|-----------------|---------|-----------------|---------|
|-----------------|---------|-----------------|---------|
|-------------2---|-3-------|-------------2---|-4-------|
|-0-----0-3-------|---------|-0-----0-3-------|---------|

] ] ] ] ] ] ] ] ] ] ] ] ] ] ] ]
|------------------|---------|------------------|---------|
|-----8---8--------|-8-------|-----8---8--------|---------|
|-------7h9p7------7h9-------|-------7h9p7------|-7\\-----|
|-------------10-7-|---------|-------------10-7-|-7\\-----|
|------------------|---------|------------------|---------|
|------------------|---------|------------------|---------|

The solo is...
] ] ] ] ] ] ] ] ] ] ] ] ] ] ] ]
|-----------------|------------------|-----------------|-----------------|
|-8-----8-8-------|-----8----8---8---|-----------------|-----------------|
7h9-----7-7-------|-----7--7h9---7---|-------8---------|-----7---7-------|
|-----------------|---9---9----------7h9------7h9------|---7h9-7h9-7---7-|
|-----------------|------------------|-----------------|-------------10--|
|-----------------|------------------|-----------------|-----------------|

] ] ] ] ] ] ] ] ] ] ] ] ] ] ] ]
|-----------------|------------------|----------------|------------------|
|-----------------|------------------|----------------|------------------|
|-----------------|---5------5---5---|-4--------------|------------------|
|-----------------|---5----5h7-5h7---|-5--------------|---5------5---5---|
|-7-------------5/|/7-----7----------|----------------|---5----5h7-5h7---|
|-----------------|------------------|--------------5/|/7-----7----------|

And finally, the following is played as an outro over the repeated "I can't
cry anymore" line
] ] ] ] ] ] ] ]
|--------------------|------------------|
|--------------------|------------------|
|--------------------|------------------|
|--------------------|------------------|  (repeat to fade)
|--------5-5h7-------|------------------|
|---3-/7-------------|---3-/7p5---3-0-3-|


Important: The song above is NOT stored on the Chordie server. The original song is hosted at www.xguitar.com. Chordie works as a search engine and provides on-the-fly formatting. Chordie does not index songs against artists'/composers' will. To remove this song please click here.

Text color:
Chord color:
Chord grids: 
Font size:    
Page size: 

A Am C D Em G
variations - click chord images

Login - add to songbook

Transpose chords

Tuning

Rating click stars to rate

Layout
Accuracy

SHARE PAGE  




You need to log in to post comments