Guitar Tabs, Chords and Lyrics


What I Can Do For You  Sheryl Crow

[Am]  I'm so glad you're awake;[D] that you're not like the others
[F] Cause they're so straight-laced[G] and no fun
Gosh that's nice, that lingerie
Makes me feel like .. oh, I don't know
[Am]  You're a very pretty [D/A]thing - you remind me of so[Am]meone
You must have heard some [D/A]awful nasty things about me, but
[F] What I can do for you there's no one else on [Am]God's green earth can do
[F] What I can do for you there's no one else on [Am]God's green earth can do
[D] Just ask anybody[Em], they'll tell you that it's [F]true
There's no one else on earth can [G]do the [Em]things that [C]I can [G/B]do for [Am]you
(For you, for you) x8
You're never gonna make it all by yourself
You're gonna need a friend, you're gonna need my help
I have so much to offer if you just be nice
If you do what I say and don't make me say it twice
[Am]  Do you mind if I just[D/A]   rub my hand up, thus
[Am]  Come on just my hand[D/A],  come on just my hand.
[Am]  You got to understand[D/A]:  I'm gonna be your man
[Am]  I'm gonna be your man[D/A], you're gonna need me (I'm gonna be your man)
[Am]  I'm gonna make you under[D/A]stand, yeah (I'm gonna be your man...)
[Am] I'm gonna be your man[D/A], gonna be, I'm gonna be your man (I'm gonna be ..)
What I can do for you there's no one else on God's green earth can do
What I can do for you there's no one else on God's green earth can do
Just ask anybody, they'll tell you that it's true
There's no one else on earth can do the things that I can do for you
(For you, for you) x lots
(There's no else on earth can do those things
that I can do, that I can do for you)
............
There is one guitar on the recording (probably a telecaster with a bit of
slapback echo for extra coolness) which comes in on the line "You're a very
pretty thing.." - I've only transcribed as far as the link into the second
verse because:
a - once you get the idea of what's going on, it's kind of fun to improvise
b - I'm lazy
(Hold bend)
] ] ] ] ] ] ] ] ] ] ] ] ] ] ] ]
|---------|---------|---------|---------------------------------|
|-8-------|---------|---------|---------------------------------|
|-7b9-----|-9b11----|-7b9-----|-9-r-7---5---7b9r7p5-------------|
|---------|---------|---------|---------------------7---7---\\\-|
|---------|---------|---------|---------------------------------|
|---------|---------|---------|---------------------------------|

Follow the chords until you get to "Just ask anybody":
] ] ] ] ] ] ] ] ] ] ] ] ] ] ] ]
|-----------------|-----------------|-----------------|---------|
|----3------------|-------1---------|----1------------|-----1-3-|
|-------2---------|----0------------|-------2---------|-0-------|
|-0---------------|-2---------------|-3---------------|-0-2-----|
|-----------------|-----------------|-----------------|---------|
|-----------------|-----------------|-----------------|---------|

] ] ] ] ] ] ] ]
|---------------------------8-----|----------10b12---------r10p8----|
|-------------8h10------------10--|-----------------------------10--|
|---------------------------------|---------------------------------|
|---------------------------------|---------------------------------|
|----(0)--------------------------|---------------------------------|
|---------------------------------|---------------------------------|

] ] ] ] ] ] ] ]
|-----------8---------------------|---------------------------------|
|-10----------10------------------|-x---12\---8---------8-----------|
|---------------------------------|-x---12\---7----/9-------9\7p5---|
|---------------------------------|-------------------------------7-|
|---------------------------------|---------------------------------|
|---------------------------------|---------------------------------|

] ] ] ] ] ] ] ]
|---------------------------------|---------------------------------|
|-------------8-------8-----------|-10--10--10------------------10\\|
|-------------7b9---------9r7p5---|9b11-b11-b11r9p7-7------/11------|
|---------------------------------|----------------9----------------|
|----(0)--------------------------|---------------------------------|
|---------------------------------|---------------------------------|

] ] ] ] ] ] ] ]
|---------------------------------|---------------------------------|
|---------------------------------|-------8---------10------8\\-----|
|---------------------------------|-------------7-------------------|
|-----5-----4-----2-----0---------|/9-------------------------------|
|-----5-----5-----3-----3---------|---------------------------------|
|---------------------------------|---------------------------------|


Important: The song above is NOT stored on the Chordie server. The original song is hosted at www.xguitar.com. Chordie works as a search engine and provides on-the-fly formatting. Chordie does not index songs against artists'/composers' will. To remove this song please click here.

Text color:
Chord color:
Chord grids: 
Font size:    
Page size: 

Am C D Em F G G/B
variations - click chord images

Login - add to songbook

Transpose chords

Tuning

Rating click stars to rate

Layout
Accuracy

SHARE PAGE  




You need to log in to post comments