Guitar Tabs, Chords and Lyrics


Us Vs. Them    Sick Of It All



intro x4
|---------------|
|---------------|
|-7>--4>--5>>---|
|-5>--2>--3>>---|
|---------------|
|---------------|

verse x8
|------------|
|------4-----|
|---4--4--5--|
|5--4--2--5--|
|5--2-----3--|
|3-----------|

pre chorus x1
|---------------------------------------------|
|---------------------------------------------|
|---4-----------4--7-----4-----------4--7--10-|
|5--4--3--7--5--4--7--5--4--3--7--5--4--7--10-|
|5--2--3--7--5--2--5--5--2--3--7--5--2--5--8--|
|3-----1--5--3--------3-----1--5--3-----------|

chorus x4
|------------------|
|------------------|
|8--5--------------|
|8--5--5--8--------|
|6--3--5--8--------|
|------3--6--------|

intro x2
verse x4
pre chorus x1
chorus x6

ending x2
|---------------------------|
|---------------------------|
|---------------------------|
|-5--2--3----------------5--|
|-5--2--3----------------5--|


Important: The song above is NOT stored on the Chordie server. The original song is hosted at www.xguitar.com. Chordie works as a search engine and provides on-the-fly formatting. Chordie does not index songs against artists/composers will. To remove this song please click here.

This song is displayed as text-only. Transposing and tuning is only available for chordpro-songs.

Login - add to songbook

Rating click stars to rate

Layout
Accuracy

SHARE PAGE  




You need to log in to post comments