Guitar Tabs, Chords and Lyrics


Call to Arms    Sick Of It All



Band: Sick of it All
Song: Call to Arms
Thom Mills dustbin_man@hotmail.com

Intro
e:--------------------
b:--------------------
g:--7-----7-----------
d:--7--5--7----7------
a:--5--5--5----7------
E:-----3-------5------

verse
e:---------------------------
b:---------------------------
g:--7-----7------7--------7--
d:--7--5--7--7---7--5--5--7--
a:--5--5--5--7---5--5--5--5--
E:-----3-----5------3--3-----

chorus bit
e:----------------------------
b:----------------------------
g:-10-------------7-10-----9--
d:-10-10--5--(x3)-7-10-10--9--


Important: The song above is NOT stored on the Chordie server. The original song is hosted at www.xguitar.com. Chordie works as a search engine and provides on-the-fly formatting. Chordie does not index songs against artists'/composers' will. To remove this song please click here.

This song is displayed as text-only. Transposing and tuning is only available for chordpro-songs.

Login - add to songbook

Rating click stars to rate

Layout
Accuracy

SHARE PAGE  




You need to log in to post comments