Chordie logo

Freak   Silverchair



!!!!!!!!!!!!!!!!!!!!!!!!!!!!!!!!!!!!!!!!!!!!!!!!!!!!!!!!!!!!!!!!!!!!!!!!!!!!!
                    TRANSCRIPTION BY MIKE STRAMAGLIO
                         (mike_s@prodigy.net)
             http://pages.prodigy.net/mike_s/index.htm  [C.A.S.T]
!!!!!!!!!!!!!!!!!!!!!!!!!!!!!!!!!!!!!!!!!!!!!!!!!!!!!!!!!!!!!!!!!!!!!!!!!!!!!
Song-Freak
Band-silverchair
Album-Freak Show
Transcribed by Mike Stramaglio
corrections/help from Denis Bourdon
(http://members.aol.com/denbourdon/silverbsides.htm)
help on the interlude by Blake (mccartne@portal.connect.ab.ca)

**TUNING**
Dropped D

**KEY**
/-slide up
h-hammer on
11^(1/2)11-play 11th fret, bend up a half step, return to 11th fret
PM-palm mute
Tremelo picking-quickly strumming the notes

INTRO
E|--------------------------|--------------------------|
B|--------------------------|--------------------------|
G|-3----3-3--3--3--3--------|-3----3-3--3--3--3--------|
D|-2--0-2-2--2--2--2--0-0-0-|-2--0-2-2--2--2--2--0-0-0-|
A|-2--0-2-2--2--2--2--0-0-0-|-2--0-2-2--2--2--2--0-0-0-|
D|-2--0-2-2--2--2--2--0-0-0-|-2--0-2-2--2--2--2--0-0-0-|

E|--------------------------|--------------------------|
B|--------------------------|--------------------------|
G|--------------------------|--------------------------|
D|-2--0-2-2--2--2--2--0-0-0-|-2--0-2-2--2--2--2--0-0-0-|
A|-2--0-2-2--2--2--2--0-0-0-|-2--0-2-2--2--2--2--0-0-0-|
D|-2--0-2-2--2--2--2--0-0-0-|-2--0-2-2--2--2--2--0-0-0-|

VERSE
E|--------------------------|--------------------------|
B|--------------------------|--------------------------|
G|--------------------------|--------------------------|
D|-2--0-2-2--2--2--2--0-0-0-|-2--0-2-2--2--2--2--0-0-0-|
A|-2--0-2-2--2--2--2--0-0-0-|-2--0-2-2--2--2--2--0-0-0-|
D|-2--0-2-2--2--2--2--0-0-0-|-2--0-2-2--2--2--2--0-0-0-|

E|--------------------------|--------------------------|
B|--------------------------|--------------------------|
G|--------------------------|--------------------------|
D|-2--0-2-2--2--2--2--0-0-0-|-2--0-2-2--2--2--2--0-0-0-|
A|-2--0-2-2--2--2--2--0-0-0-|-2--0-2-2--2--2--2--0-0-0-|
D|-2--0-2-2--2--2--2--0-0-0-|-2--0-2-2--2--2--2--0-0-0-|

CHORUS

E|--------------------------------------------------------|
B|--------------------------------------------------------|
G|--------------------------------------------------------|
D|--0--3/4-4--0-0--3/4-4-4-4--0--3/4-4--0-0--3/4--4--4h6--|
A|--0--3/4-4--0-0--3/4-4-4-4--0--3/4-4--0-0--3/4--4--4h6--|
D|--0--3/4-4--0-0--3/4-4-4-4--0--3/4-4--0-0--3/4--4--4h6--|
                                                  PM
E|--------------------------------------------------------|
B|--------------------------------------------------------|
G|--------------------------------------------------------|
D|--0--3/4-4--0-0--3/4-4-4-4--0--3/4-4--0-0--3/4--4--4h6--|
A|--0--3/4-4--0-0--3/4-4-4-4--0--3/4-4--0-0--3/4--4--4h6--|
D|--0--3/4-4--0-0--3/4-4-4-4--0--3/4-4--0-0--3/4--4--4h6--|
                                                  PM

E|--0--|
B|--0--|
G|--2--|
D|--3--|
A|--3--|
D|--3--|

VERSE 2
E|--------------------------|--------------------------|
B|--------------------------|--------------------------|
G|--------------------------|--------------------------|
D|-2--0-2-2--2-2--0-2-3-3-0-|-2--0-2-2--2-2--0-2-3-3-0-|
A|-2--0-2-2--2-2--0-2-3-3-0-|-2--0-2-2--2-2--0-2-3-3-0-|
D|-2--0-2-2--2-2--0-2-3-3-0-|-2--0-2-2--2-2--0-2-3-3-0-|

INTERLUDE1 
|-----------------------------------|
|-----------------------------------|
|-----------------------------------|
|------3-------5-----5---4---2---0--|
|----3---3---3---3------------------|
|--3-------3-------0---0---0---0----|

VERSE 1

CHORUS 2
E|--------------------------------------------------------|
B|--------------------------------------------------------|
G|--------------------------------------------------------|
D|--0--3/4-4--0-0--3/4-4-4-4--0--3/4-4--0-0--3/4--4--4h6--|
A|--0--3/4-4--0-0--3/4-4-4-4--0--3/4-4--0-0--3/4--4--4h6--|
D|--0--3/4-4--0-0--3/4-4-4-4--0--3/4-4--0-0--3/4--4--4h6--|
                                                  PM

E|--------------------------------------------------------|
B|--------------------------------------------------------|
G|--------------------------------------------------------|
D|--0--3/4-4--0-0--3/4-4-4-4--0--3/4-4--0-0--3/4--4--4h6--|
A|--0--3/4-4--0-0--3/4-4-4-4--0--3/4-4--0-0--3/4--4--4h6--|
D|--0--3/4-4--0-0--3/4-4-4-4--0--3/4-4--0-0--3/4--4--4h6--|
                                                  PM

BRIDGE
E|-------------------------------|
B|-------------------------------|
G|-------------------------------|
D|--5-5--2-0-2-0--4--4-4-4-4-4-4-|
A|--5-5--2-0-2-0--4--4-4-4-4-4-4-|
D|--5-5--2-0-2-0--4--4-4-4-4-4-4-|

After that guitar 2 plays with closed wah (if you stretch, you can
play this part as part of guitar 1)
E|------------|
B|------------|
G|--6^(1/2)6--|
D|------------|
A|------------|
D|------------|

E|-------------------------------|
B|-------------------------------|
G|-------------------------------|
D|--5-5--2-0-2-0--4--4-4-4-4-4-4-|
A|--5-5--2-0-2-0--4--4-4-4-4-4-4-|
D|--5-5--2-0-2-0--4--4-4-4-4-4-4-|

After that guitar 2 plays this with open wah
E|-0-|
B|-0-|
G|-x-|
D|-4-|
A|-4-|
D|-4-|

E|-------------------------------|
B|-------------------------------|
G|-------------------------------|
D|--5-5--2-0-2-0--4--4-4-4-4-4-4-|
A|--5-5--2-0-2-0--4--4-4-4-4-4-4-|
D|--5-5--2-0-2-0--4--4-4-4-4-4-4-|

After that guitar 2 plays with closed wah
E|------------|
B|------------|
G|--6^(1/2)6--|
D|------------|
A|------------|
D|------------|


E|---------------------------------------------------0--|
B|---------------------------------------------------0--|
G|---------------------------------------------------2--|
D|--5-5--2-0-2-0--4--4-4-4-4-4-4--4--4-4-4-4-4-4-4---3--|
A|--5-5--2-0-2-0--4--4-4-4-4-4-4--4--4-4-4-4-4-4-4---3--|
D|--5-5--2-0-2-0--4--4-4-4-4-4-4--4--4-4-4-4-4-4-4---3--|
                     PM_________     PM___________

VERSE 3
E|--------------------------|--------------------------|
B|--------------------------|--------------------------|
G|--------------------------|--------------------------|
D|-2--0-2-2--2-2--0-2-3-3-0-|-2--0-2-2--2-2--0-2-3-3-0-|
A|-2--0-2-2--2-2--0-2-3-3-0-|-2--0-2-2--2-2--0-2-3-3-0-|
D|-2--0-2-2--2-2--0-2-3-3-0-|-2--0-2-2--2-2--0-2-3-3-0-|

E|--------------------------|--------------------------|
B|--------------------------|--------------------------|
G|--------------------------|--------------------------|
D|-2--0-2-2--2-2--0-2-3-3-0-|-2--0-2-2--2-2--0-2-3-3-0-|
A|-2--0-2-2--2-2--0-2-3-3-0-|-2--0-2-2--2-2--0-2-3-3-0-|
D|-2--0-2-2--2-2--0-2-3-3-0-|-2--0-2-2--2-2--0-2-3-3-0-|

INTERLUDE 2
E|--------------------------------------|
B|--------------------------------------|
G|-----------5-5------------------------|
D|--3---3-3--5-5-0-0-0-0-0-0-0-0-0--0-0-|
A|--3---3-3--3-3-0-0-0-0-0-0-0-0-0--0-0-|
D|--3---3-3------0-0-0-0-0-0-0-0-0--0-0-|
        PM_____________________________
E|----------------------------------------|
B|----------------------------------------|
G|-------------5-5------------------------|
D|--3-3-3-3-3--5-5-0-0-0-0-0-0-0-0-0--0-0-|
A|--3-3-3-3-3--3-3-0-0-0-0-0-0-0-0-0--0-0-|
D|--3-3-3-3-3------0-0-0-0-0-0-0-0-0--0-0-|
    PM___________________________________
E|----------------------------------------|
B|----------------------------------------|
G|-------------5-5------------------------|
D|--3-3-3-3-3--5-5-0-0-0-0-0-0-0-0-0--0-0-|
A|--3-3-3-3-3--3-3-0-0-0-0-0-0-0-0-0--0-0-|
D|--3-3-3-3-3------0-0-0-0-0-0-0-0-0--0-0-|
    PM___________________________________
E|----------------------------------------|
B|----------------------------------------|
G|-------------5-5------------------------|
D|--3-3-3-3-3--5-5-0-0-0-0-0-0-0-0-0--0-0-|
A|--3-3-3-3-3--3-3-0-0-0-0-0-0-0-0-0--0-0-|
D|--3-3-3-3-3------0-0-0-0-0-0-0-0-0--0-0-|
    PM____________________________________

SOLO (TREMELO PICKING)
E|------------------------------------------------------------|
B|------------------------------------------------------------|
G|--14----17----11----14----17----11----16^----11----14-------|
D|---------------------------------------------------------16-|
A|------------------------------------------------------------|
D|------------------------------------------------------------|

INTERLUDE 2 (without the palm mutes)
GTR 2 plays this once in the background
E|------------------|
B|------------------|
G|-11-11-11-11-11-9-|
D|------------------|
A|-9--9--9--9--9--7-|
D|------------------|

OUTRO
E|--------------------------|--------------------------|
B|--------------------------|--------------------------|
G|--------------------------|--------------------------|
D|-2--0-2-2--2--2--2--0-0-0-|-2--0-2-2--2--2--2--0-0-0-|
A|-2--0-2-2--2--2--2--0-0-0-|-2--0-2-2--2--2--2--0-0-0-|
D|-2--0-2-2--2--2--2--0-0-0-|-2--0-2-2--2--2--2--0-0-0-|

E|--------------------------|--------------------------|
B|--------------------------|--------------------------|
G|--------------------------|--------------------------|
D|-2--0-2-2--2--2--2--0-0-0-|-2--0-2-2--2--2--2--0-0-0-|
A|-2--0-2-2--2--2--2--0-0-0-|-2--0-2-2--2--2--2--0-0-0-|
D|-2--0-2-2--2--2--2--0-0-0-|-2--0-2-2--2--2--2--0-0-0-|

E|-----|
B|-----|
G|--3--|
D|--2--|
A|--2--|
D|--2--|
(LET RING)



Important: The song above is NOT stored on the Chordie server. The original song is hosted at www.xguitar.com. Chordie works as a search engine and provides on-the-fly formatting. Chordie does not index songs against artists/composers will. To remove this song please click here.

This song is displayed as text-only. Transposing and tuning is only available for chordpro-songs.

Login - add to songbook

Rating click stars to rate

Layout
Accuracy

SHARE PAGE  

You need to log in to post comments